Guitar Tabs for Creed - With Arms Wide Open

Creed - With Arms Wide Open

Intro

   C9
E|----------------------------------------------
B|---0h1--------1------1h3-------1-----0h1p0----
G|--------0-------0----------0-----0------------
D|----------0-----------------------------------
A|---3--------3------3-----3---------3----------
E|----------------------------------------------

   C9/B
E|-------------------------------------------
B|---0h1--------1-------3--------1-----0h1p0-
G|--------0-------0----------0-----0---------
D|----------0--------------------------------
A|---2--------2------2-----2---------2-------
E|-------------------------------------------

   Am7(11)
E|-------------------------------------------
B|---0h1-------1------0h1p0--------0---------
G|-------0-------0-----------0-------0-------
D|---------0-------------------0-------------
A|---0-------0------0------------0-----0-----
E|-------------------------------------------

   Am7(11)
E|-------------------------------------------
B|---0h1---------1-----0h1p0--------0--------
G|---------0-------0----------0-------0------
D|-----------0------------------0------------
A|---0---------0-----0------------0-----0----
E|-------------------------------------------


1st Verse

     C9
Well I just heard 
E|----------------------------------------------
B|---0h1--------1------1h3-------1-----0h1p0----
G|--------0-------0----------0-----0------------
D|----------0-----------------------------------
A|---3--------3------3-----3---------3----------
E|----------------------------------------------

    C9/B
The news today
E|-------------------------------------------
B|---0h1--------1-------3--------1-----0h1p0-
G|--------0-------0----------0-----0---------
D|----------0--------------------------------
A|---2--------2------2-----2---------2-------
E|-------------------------------------------

   Am7(11)
It seems my life 
E|-------------------------------------------
B|---0h1-------1------0h1p0--------0---------
G|-------0-------0-----------0-------0-------
D|---------0-------------------0-------------
A|---0-------0------0------------0-----0-----
E|-------------------------------------------

   Am7(11)
Is going to change
E|-------------------------------------------
B|---0h1---------1-----0h1p0--------0--------
G|---------0-------0----------0-------0------
D|-----------0------------------0------------
A|---0---------0-----0------------0-----0----
E|-------------------------------------------

     C9
  I close my eyes
E|----------------------------------------------
B|---0h1--------1------1h3-------1-----0h1p0----
G|--------0-------0----------0-----0------------
D|----------0-----------------------------------
A|---3--------3------3-----3---------3----------
E|----------------------------------------------

    C9/B
  Begin to pray
E|-------------------------------------------
B|---0h1--------1-------3--------1-----0h1p0-
G|--------0-------0----------0-----0---------
D|----------0--------------------------------
A|---2--------2------2-----2---------2-------
E|-------------------------------------------

   Am7(11)
Then tears of joy
E|-------------------------------------------
B|---0h1-------1------0h1p0--------0---------
G|-------0-------0-----------0-------0-------
D|---------0-------------------0-------------
A|---0-------0------0------------0-----0-----
E|-------------------------------------------

       Am7(11)
Stream down my face
E|----------------------------------------------
B|------0h1---------1-----0h1p0--------0--------
G|------------0-------0----------0-------0------
D|--------------0------------------0------------
A|------0---------0-----0------------0-----0----
E|----------------------------------------------

Chorus
               F5(9)
With arms wide open
E|--------------3--
B|--------------6--
G|--------------5--
D|--------------3--
A|-----------------
E|-----------------

          C9
Under the sunlight
E|--------3--------
B|--------3--------
G|--------0--------
D|--------2--------
A|--------3--------
E|-----------------

         Em
 Welcome to this place
E|--------0--
B|--------0--
G|--------0--
D|--------2--
A|--------2--
E|--------0--

               D5(9)
  I'll show you everything
E|--------------0--
B|--------------3--
G|--------------2--
D|--------------0--
A|-----------------
E|-----------------

Pos-Chorus

               C9
With arms wide open
E|----------------------------------------------------------
B|---------------0h1--------1------1h3-------1-----0h1p0----
G|--------------------0-------0----------0-----0------------
D|----------------------0-----------------------------------
A|---------------3--------3------3-----3---------3----------
E|----------------------------------------------------------

    C9/B
E|-------------------------------------------
B|---0h1--------1-------3--------1-----0h1p0-
G|--------0-------0----------0-----0---------
D|----------0--------------------------------
A|---2--------2------2-----2---------2-------
E|-------------------------------------------
  
               Am7(11)
  With arms wide open
E|-------------------------------------------------------
B|---------------0h1-------1------0h1p0--------0---------
G|-------------------0-------0-----------0-------0-------
D|---------------------0-------------------0-------------
A|---------------0-------0------0------------0-----0-----
E|-------------------------------------------------------

       Am7(11)
E|----------------------------------------------
B|------0h1---------1-----0h1p0--------0--------
G|------------0-------0----------0-------0------
D|--------------0------------------0------------
A|------0---------0-----0------------0-----0----
E|----------------------------------------------

2nd Verse

     C9
Well I don't know
E|----------------------------------------------
B|---0h1--------1------1h3-------1-----0h1p0----
G|--------0-------0----------0-----0------------
D|----------0-----------------------------------
A|---3--------3------3-----3---------3----------
E|----------------------------------------------

    C9/B
 If I'm ready
E|-------------------------------------------
B|---0h1--------1-------3--------1-----0h1p0-
G|--------0-------0----------0-----0---------
D|----------0--------------------------------
A|---2--------2------2-----2---------2-------
E|-------------------------------------------

   Am7(11)
To be the man
E|-------------------------------------------
B|---0h1-------1------0h1p0--------0---------
G|-------0-------0-----------0-------0-------
D|---------0-------------------0-------------
A|---0-------0------0------------0-----0-----
E|-------------------------------------------

       Am7(11)
I have to be
E|----------------------------------------------
B|------0h1---------1-----0h1p0--------0--------
G|------------0-------0----------0-------0------
D|--------------0------------------0------------
A|------0---------0-----0------------0-----0----
E|----------------------------------------------

     C9
I'll take a breath
E|----------------------------------------------
B|---0h1--------1------1h3-------1-----0h1p0----
G|--------0-------0----------0-----0------------
D|----------0-----------------------------------
A|---3--------3------3-----3---------3----------
E|----------------------------------------------

             C9/B
I'll take her by my side
E|----------------------------------------------------
B|------------0h1--------1-------3--------1-----0h1p0-
G|-----------------0-------0----------0-----0---------
D|-------------------0--------------------------------
A|------------2--------2------2-----2---------2-------
E|----------------------------------------------------

   Am7(11)
We stand in awe
E|-------------------------------------------
B|---0h1-------1------0h1p0--------0---------
G|-------0-------0-----------0-------0-------
D|---------0-------------------0-------------
A|---0-------0------0------------0-----0-----
E|-------------------------------------------

       Am7(11)
We've created life
E|----------------------------------------------
B|------0h1---------1-----0h1p0--------0--------
G|------------0-------0----------0-------0------
D|--------------0------------------0------------
A|------0---------0-----0------------0-----0----
E|----------------------------------------------

2nd Chorus

               F5(9)
With arms wide open
E|--------------3--
B|--------------6--
G|--------------5--
D|--------------3--
A|-----------------
E|-----------------

          C9
Under the sunlight
E|--------3--------
B|--------3--------
G|--------0--------
D|--------2--------
A|--------3--------
E|-----------------

         Em
 Welcome to this place
E|--------0--
B|--------0--
G|--------0--
D|--------2--
A|--------2--
E|--------0--

               D5(9)
  I'll show you everything
E|--------------0--
B|--------------3--
G|--------------2--
D|--------------0--
A|-----------------
E|-----------------

               F5(9)
With arms wide open
E|--------------3--
B|--------------6--
G|--------------5--
D|--------------3--
A|-----------------
E|-----------------

          C9
Now everything has changed
E|--------3--------------
B|--------3--------------
G|--------0--------------
D|--------2--------------
A|--------3--------------
E|-----------------------

                Em
 I'll show you love
E|--------------0-----
B|--------------0-----
G|--------------0-----
D|--------------2-----
A|--------------2-----
E|--------------0-----

               D5(9)
 I'll show you everything
E|--------------0--------
B|--------------3--------
G|--------------2--------
D|--------------0--------
A|-----------------------
E|-----------------------

2nd Pos-Chorus

    A5
With arms wide open
E|-----------------
B|-----------------
G|--2--------------
D|--2--------------
A|--0--------------   
E|-----------------

      A5
 wide open
E|--------------------
B|--------------------
G|-----2--------------
D|-----2--------------
A|-----0--------------   
E|--------------------

Guitar Solo

1st Guitar

    C9  C9/B  Bb6(9/11)  Am7
E|--3-----3-----0-----0--
B|--3-----3-----1-----1--
G|--0-----0-----0-----0--
D|--2-----0-----0-----2--
A|--3-----2-----1-----0--
E|-----------------------


2nd Guitar

E|--------------------------
B|--------------------------
G|--7---7b-9r7--5---7b9-----
D|--------------------------
A|--------------------------
E|--------------------------

E|-----------------------------------------------
B|--------5--6--5--6--5-----------5--6--5--6--5--
G|--5--7--------------------5--7-----------------
D|-----------------------------------------------
A|-----------------------------------------------
E|-----------------------------------------------

E|--------------------------------------------------------
B|--------5---6/8--6--5--6--5--6--5--6--6--5--6---8b10r8--
G|--5--7--------------------------------------------------
D|--------------------------------------------------------
A|--------------------------------------------------------
E|--------------------------------------------------------

E|-----------------------------------------------
B|--------5--6--5--6--5-----------5--6--5--6--5--
G|--5--7--------------------5--7-----------------
D|-----------------------------------------------
A|-----------------------------------------------
E|-----------------------------------------------

E|--------------------------------------------------------
B|--------5---6/8--6--5--6--5--6--5--6--6--5--6---8b10r8--
G|--5--7--------------------------------------------------
D|--------------------------------------------------------
A|--------------------------------------------------------
E|--------------------------------------------------------

Bridge

          C9
If i had just one wish
E|--------3-----------
B|--------3-----------
G|--------0-----------
D|--------2-----------
A|--------3-----------
E|--------------------

     C9/B
Only one demand
E|-----3--------
B|-----3--------
G|-----0--------
D|-----0--------
A|-----2--------
E|--------------

          Bb6(9/11)
I hope he's not like me
E|-----------0-----------
B|-----------1-----------
G|-----------0-----------
D|-----------0-----------
A|-----------1-----------
E|-----------------------

         Am7(9)
I hope he understands
E|--------0--------
B|--------1--------
G|--------0--------
D|--------2--------
A|--------0--------
E|-----------------

            C9
That he can take this life
E|-----------3-----------
B|-----------3-----------
G|-----------0-----------
D|-----------2-----------
A|-----------3-----------
E|-----------------------

           C9/B
And hold it by the hand
E|-----------3--------
B|-----------3--------
G|-----------0--------
D|-----------0--------
A|-----------2--------
E|--------------------

          Bb6(9/11)
And he can greet the world
E|-----------0-----------
B|-----------1-----------
G|-----------0-----------
D|-----------0-----------
A|-----------1-----------
E|-----------------------

         Am7(9)
With arms wide open
E|--------0--------
B|--------1--------
G|--------0--------
D|--------2--------
A|--------0--------
E|-----------------

3rd Chorus

               F5(9)
With arms wide open
E|--------------3--
B|--------------6--
G|--------------5--
D|--------------3--
A|-----------------
E|-----------------

          C9
Under the sunlight
E|--------3--------
B|--------3--------
G|--------0--------
D|--------2--------
A|--------3--------
E|-----------------

         Em
 Welcome to this place
E|--------0--
B|--------0--
G|--------0--
D|--------2--
A|--------2--
E|--------0--

               D5(9)
  I'll show you everything
E|--------------0--
B|--------------3--
G|--------------2--
D|--------------0--
A|-----------------
E|-----------------

               F5(9)
With arms wide open
E|--------------3--
B|--------------6--
G|--------------5--
D|--------------3--
A|-----------------
E|-----------------

          C9
Now everything has changed
E|--------3--------------
B|--------3--------------
G|--------0--------------
D|--------2--------------
A|--------3--------------
E|-----------------------

                Em
 I'll show you love
E|--------------0-----
B|--------------0-----
G|--------------0-----
D|--------------2-----
A|--------------2-----
E|--------------0-----

               D5(9)
 I'll show you everything
E|--------------0--------
B|--------------3--------
G|--------------2--------
D|--------------0--------
A|-----------------------
E|-----------------------

Ending

                 C9  C9/B
With arms wide open     
E|--------------3-----3--
B|--------------3-----3--
G|--------------0-----0--
D|--------------2-----0--
A|--------------3-----2--
E|-----------------------

               Am7    
With arms wide open
E|--------------0-----
B|--------------1-----
G|--------------0-----
D|--------------2-----
A|--------------0-----
E|--------------------

tabs and chords, guitar tabs, music transcription, music technology, deep learning, music information retrieval, transcribe into tabs & chords, chordify, music renditions, songsterr, reverbnation, tabulature, bollywood chords, ultimate guitar, yousician, guitar lessons, acoustic guitar, electric guitar, guitar tuner, 911 tabs