Guitar Tabs for Fingerstyle: Wicked Game (c. Isaak)

(/) Slide Up  (\) Slide Down  (h) Hammer On  (p) Pull Off  (b) Bend (r) Release (v) Vibrato (x) Muted
(f) Play notes fast

This is my first ever tab. You don't have to follow it perfectly you can change or add things as long as
they stay in the harmonics of the chord. I created this tab by following lick n riff's tutorial.
The f stands for fast, you have to play those specific notes fast.
To hear the song check out Lick n Riff's tutorial here => https://www.youtube.com/watch?v=Ooe6ZmVQKEU


These are the chords you need.


    Bm       A        E         Esus4        Asus2
E|--2--------0--------0----------0-------------0--------
B|--3--------2--------0----------0-------------0--------
G|--4--------2--------1----------2-------------2--------
D|--4--------2--------2----------2-------------2--------
A|--2--------0--------2----------0-------------0--------
E|--------------------0----------0----------------------


Tabs for Song : Wicked Game (C. Isaak)
BPM : 113

          Bm f                      A f                              E          Esu4                 E
E|-----------2---x----2--------------0---x-----0--------0-----------------x----------------------x-------
B|----------3----x-------3----------2----x--------2---------3---2----0----x--0-------------------x---0---
G|---3b3---4-----x----------4------2-----x-----------2---------------1----x--1-------2-----1-----x---1---
D|---------------x-----------------------x---------------------------2----x--2----2-----2--------x---2---
A|--------2------x--2-------------0------x---0----------------------------x----------------------x-------
E|---------------x-----------------------x--------------------------------x----------------------x-------

          Bm f                      A f                              E           Esu4                 E
E|-----------2---x----2--------------0---x-----0--------0-----------------x----------------------x-------
B|---0------3----x-------3----------2----x--------2---------3---2----0----x--0-------------------x---0---
G|---------4-----x----------4------2-----x-----------2---------------1----x--1-------2-----1-----x---1---
D|---------------x-----------------------x---------------------------2----x--2----2-----2--------x---2---
A|--------2------x--2-------------0------x---0----------------------------x----------------------x-------
E|---------------x-----------------------x--------------------------------x----------------------x-------

     Bm                   Asus2             Esus4             E       
E|-----2--------0-----------------------------------------x-----------------------x--------
B|--------3---------3---2---0------0---0------------------x---0-------------------x--------
G|-----------4-----------------2---2---2------2-----1-----x---1-------1---2--2\4--x---4----
D|-----------------------------2-----------2-----2--2-----x---2-------2---4--4\6--x---6----
A|---2----------------------0-----------------------------x-----------------------x--------
E|--------------------------------------------------0-----x---------------0-------x--------

     Bm                   Asus2             Esus4             E       
E|-----2--------0-----------------------------------------x-----------------------x--------
B|--------3---------3---2---0------0---0------------------x---0-------------------x--------
G|-----------4-----------------2---2---2------2-----1-----x---1-------1---2--2\4--x---4----
D|-----------------------------2-----------2-----2--2-----x---2-------2---4--4\6--x---6----
A|---2----------------------0-----------------------------x-----------------------x--------
E|--------------------------------------------------0-----x---------------0-------x--------

     Bm              A  f            E                   Esus4          E
E|---------------0------0--0--0--0--0--0--0-----x--0--------------------x-------
B|-------2---3---3-----2---3--2--3--2--0--0-----x--0--------------------x--0----
G|---4---4---4--------2----2--2--2--2--1--1-----x--1--------2-----1-----x--1----
D|---4------------------------------------------x--------2-----2--------x--2----
A|---2---2---2---2----0-------------------------x-----------------------x-------
E|-------------------------------------0--------x-----------------------x-------

     Bm               A  f           E                   Esus4           E
E|---------------0-------0--0--0--0--0--0--0-----x--0--------------------x-------
B|-------2---3---3------2---3--2--3--2--0--0-----x--0--------------------x--0----
G|---4---4---4---------2----2--2--2--2--1--1-----x--1--------2-----1-----x--1----
D|---4-------------------------------------------x--------2-----2--------x--2----
A|---2---2---2---2----0--------------------------x-----------------------x-------
E|--------------------------------------0--------x-----------------------x-------

    
E|---10-10-10-10------9---9---7---5---5---7---9---7------x--7----------------------x------
B|----7-------------------------------------------9------x--9---------10-----9-----x--9---
G|----7---------------9---9---7---6---6---7---9----------x---------9------9--------x--9---
D|-------------------------------------------------------x-------------------------x------
A|------------------------0------------------------------x-------------------------x------
E|----7-------------------------------------------0------x-------------------------x------

    
E|---10-10-10-10------9---9---7---5---5---7---9---7------x--7----------------------x------
B|----7-------------------------------------------9------x--9---------10-----9-----x--9---
G|----7---------------9---9---7---6---6---7---9----------x---------9------9--------x--9---
D|-------------------------------------------------------x-------------------------x------
A|------------------------0------------------------------x-------------------------x------
E|----7-------------------------------------------0------x-------------------------x------

     Bm      f        A                f    A           E
E|------------2----x-----2--------------0---0--0--0--0----------x-----------------------x------
B|----0------3-----x--------3----------2----3--2--3--2--0--0----x--0--------------------x------
G|----------4------x-----------4------2-----2--2--2--2--1--1----x--1---------1--2--2\4--x--4---
D|-----------------x------------------------------------2--2----x--2---------2--4--4\6--x--6---
A|---------2-------x--2--------------0--------------------------x-----------------------x------
E|-----------------x--------------------------------------------x-----------------------x------

     Bm      f        A                f    A           E
E|------------2----x-----2--------------0---0--0--0--0----------x-----------------------x------
B|----0------3-----x--------3----------2----3--2--3--2--0--0----x--0--------------------x------
G|----------4------x-----------4------2-----2--2--2--2--1--1----x--1---------1--2--2\4--x--4---
D|-----------------x------------------------------------2--2----x--2---------2--4--4\6--x--6---
A|---------2-------x--2--------------0--------------------------x-----------------------x------
E|-----------------x--------------------------------------------x-----------------------x------
                                  
     Bm                            Asus2              Esus4            E
E|--------------2--------0-----------------------------------------x-----------------------x--------
B|---2-------------3---------3---2---0------0---0------------------x---0-------------------x--------
G|------4-------------4-----------------2---2---2------2-----1-----x---1-------1---2--2\4--x---4----
D|--------------------------------------2-----------2-----2--2-----x---2-------2---4--4\6--x---6----
A|------------2----------------------0-----------------------------x-----------------------x--------
E|-----------------------------------------------------------0-----x---------------0-------x--------

     Bm                    Asus2             Esus2            E
E|-----2--------0-----------------------------------------x-----------------------x--------
B|--------3---------3---2---0------0---0------------------x---0-------------------x--------
G|-----------4-----------------2---2---2------2-----1-----x---1-------1---2--2\4--x---4----
D|-----------------------------2-----------2-----2--2-----x---2-------2---4--4\6--x---6----
A|---2----------------------0-----------------------------x-----------------------x--------
E|--------------------------------------------------0-----x---------------0-------x--------

    Bm              A  f                E            
E|-----------------------0--------------------------------------------------
B|----------------2-----3----2--0----------------------2----0---------------
G|-------4--4--4--4----2-----------2-------1--1--1--2-------------2----1----
D|-------4--4--4---------------------------2--2--2--2-------------2----2----
A|---2----------------0-----------------------------------------------------
E|--------------------------------------0-----------------------------------

        Bm           A f                 E
E|----------------------0--0--0-----------------0--0--0--0--0h2--0-------0--
B|---------------2-----2---------2-------------0---------------------3---0--
G|------4--4--4--4----2-----------------------1--------------------------1--
D|------4--4--4-------------------------------------------------------------
A|------2------------0------------------------------------------------------
E|---------------------------------------0----------------------------------

    Bm              A  f                E            
E|-----------------------0--------------------------------------------------
B|----------------2-----3----2--0----------------------2----0---------------
G|-------4--4--4--4----2-----------2-------1--1--1--2-------------2----1----
D|-------4--4--4---------------------------2--2--2--2-------------2----2----
A|---2----------------0-----------------------------------------------------
E|--------------------------------------0-----------------------------------

        Bm           A f                 E
E|----------------------0--0--0-----------------0--0--0--0--0h2--0-------0--
B|---------------2-----2---------2-------------0---------------------3---0--
G|------4--4--4--4----2-----------------------1--------------------------1--
D|------4--4--4-------------------------------------------------------------
A|------2------------0------------------------------------------------------
E|---------------------------------------0----------------------------------

     Bm      f        A                f    A           E
E|------------2----x-----2--------------0---0--0--0--0----------x-----------------------x------
B|----0------3-----x--------3----------2----3--2--3--2--0--0----x--0--------------------x------
G|----------4------x-----------4------2-----2--2--2--2--1--1----x--1---------1--2--2\4--x--4---
D|-----------------x------------------------------------2--2----x--2---------2--4--4\6--x--6---
A|---------2-------x--2--------------0--------------------------x-----------------------x------
E|-----------------x--------------------------------------------x-----------------------x------

     Bm      f        A                f    A           E
E|------------2----x-----2--------------0---0--0--0--0----------x-----------------------x------
B|----0------3-----x--------3----------2----3--2--3--2--0--0----x--0--------------------x------
G|----------4------x-----------4------2-----2--2--2--2--1--1----x--1---------1--2--2\4--x--4---
D|-----------------x------------------------------------2--2----x--2---------2--4--4\6--x--6---
A|---------2-------x--2--------------0--------------------------x-----------------------x------
E|-----------------x--------------------------------------------x-----------------------x------

     Bm                   Asus2             Esus4             E       
E|-----2--------0-----------------------------------------x-----------------------x--------
B|--------3---------3---2---0------0---0------------------x---0-------------------x--------
G|-----------4-----------------2---2---2------2-----1-----x---1-------1---2--2\4--x---4----
D|-----------------------------2-----------2-----2--2-----x---2-------2---4--4\6--x---6----
A|---2----------------------0-----------------------------x-----------------------x--------
E|--------------------------------------------------0-----x---------------0-------x--------

     Bm               A  f           E  
E|---------------0-------0--0--0--0--0--0--0-----
B|-------2---3---3------2---3--2--3--2--0--0-----
G|---4---4---4---------2----2--2--2--2--1--1-----
D|---4-------------------------------------------
A|---2---2---2---2----0--------------------------
E|--------------------------------------0--------

tabs and chords, guitar tabs, music transcription, music technology, deep learning, music information retrieval, transcribe into tabs & chords, chordify, music renditions, songsterr, reverbnation, tabulature, bollywood chords, ultimate guitar, yousician, guitar lessons, acoustic guitar, electric guitar, guitar tuner, 911 tabs