Guitar Tabs for Chris Isaak - Wicked Game

(/) Slide Up  (\) Slide Down  (h) Hammer On  (p) Pull Off  (b) Bend (r) Release (v) Vibrato (x) Muted


Tabs for Song : 

Song lyrics here
E|-----------2--------------------------------------------2-----------------------------------------------------
B|-----0--------------3-----------3--------------2--------------0--------------------------------------------0--
G|-----------------4-----------4--------------2--------------------------1-----------1--------------1-----------
D|--------------4-----------4--------------2-----------2--------------2-----------2--------------2--------------
A|-----------2-----------2--------------0-----------0--------------2-----------2--------------2-----------2-----
E|--------------------------------------------------------------0-----------0--------------0-----------0--------

E|--2--------------------------------------0--------------------------------------------------------------------
B|-----------3-----------3--------------2-----3--2-----0--------------------------------------------------------
G|--------4-----------4--------------2-----2--------------------1--------2--------1--------1-----------1--------
D|-----4-----------4--------------2--------------------------2--------4-----4-----------2-----------2-----------
A|--2-----------2--------------0--------------------------2--------------------------2-----------2--------------
E|-----------------------------------------------------0-----------0--------------0-----------0-----------------

E|--------------------------------------------------------------------------------------------------------------
B|--------------3-----------3--------------2-----------2--------------------------------------------------------
G|-----------4-----------4--------------2-----------2-----------------1-----------1--------------1-----------1--
D|--------4-----------4--------------2-----------2-----------------2-----------2--------------2-----------2-----
A|-----2-----------2--------------0-----------0-----------------2-----------2--------------2-----------2--------
E|-----------------------------------------------------------0-----------0--------------0-----------0-----------

E|--------------------------------------------------------------------------------------------------------------
B|--------------------------------------------------------------------------------0-----------------------------
G|-----------1--------2--------1--------1-----------1-----------1--------1v-2--------------1-----------1--------
D|--------2--------4-----4-----------2-----------2-----------2--------------------------2-----------2-----------
A|-----2--------------------------2-----------2-----------2-----------2--------------2-----------2--------------
E|--0-----------0--------------0-----------0-----------0-----------0--------------0-----------0-----------------

E|--------------0--------------------------0--------------------------------------------------------------------
B|--------3-----------3--------------2--------2-----0--------------------------------0--------------------------
G|-----4-----4-----4-----4--------4-----4--------4-----------------1--------1v-2--------------1-----------1-----
D|--------------4--------------------------2--------------------2--------------------------2-----------2--------
A|--2--------------------------0-----------------------------2-----------2--------------2-----------2-----------
E|--------------------------------------------------------0-----------0--------------0-----------0--------------

E|-----2--------0-----------------------------------------------------------------------------------------------
B|--------3--------3-----2-----------0-----------------------------------------------0--------------------------
G|-----------4--------4-----------4-----------2-----------1--------1--------1v-2--------------1-----------1-----
D|--------------4--------------------------2--------2-----------2--------------------------2-----------2--------
A|--2--------------------------0--------0--------0-----------2-----------2--------------2-----------2-----------
E|--------------------------------------------------------0-----------0--------------0-----------0--------------

E|--------------------------------------------------------------------------------------------------------------
B|-----------3-----------3--------------2-----------2-----------------------------------------------------------
G|--------4-----------4--------------2-----------2-----------------1-----------1--------------1-----------1-----
D|-----4-----------4--------------2-----------2-----------------2-----------2--------------2-----------2--------
A|--2-----------2--------------0-----------0-----------------2-----------2--------------2-----------2-----------
E|--------------------------------------------------------0-----------0--------------0-----------0--------------

E|--------------------------------------------------------------------------------------------------------------
B|-----------------------------------------------------------------------------------0--------------------------
G|-----------1--------2--------1--------1-----------1--------------1--------1v-2--------------1-----------1-----
D|--------2--------4-----4-----------2-----------2--------------2--------------------------2-----------2--------
A|-----2--------------------------2-----------2--------------2-----------2--------------2-----------2-----------
E|--0-----------0--------------0-----------0--------------0-----------0--------------0-----------0--------------

E|--------------0--------------------------0--------------------------------------------------------------------
B|--------3-----------3--------------2--------2-----0--------------------------------0--------------------------
G|-----4-----4-----4-----4--------4-----4--------4-----------------1--------1v-2--------------1-----------1-----
D|--------------4--------------------------2--------------------2--------------------------2-----------2--------
A|--2--------------------------0-----------------------------2-----------2--------------2-----------2-----------
E|--------------------------------------------------------0-----------0--------------0-----------0--------------

E|-----------------------------2--------------------------------------------------------------------------------
B|--------------0-----------------------2-----------------0--------------------------------------------0--------
G|--------4-----------4--------------2-----------2-----------------1-----------1--------------1-----------------
D|-----4-----4-----4-----4--------2-----------2-----2-----------2-----------2--------------2--------------------
A|--2-----------2--------------0-----------0-----------------2-----------2--------------2-----------2-----------
E|--------------------------------------------------------0-----------0--------------0-----------0--------------

E|--2--------------------------------------0--------------------------------------------------------------------
B|-----------3-----------3--------------2-----3--2-----0--------------------------------------------------------
G|--------4-----------4--------------2-----2--------------------1--------2--------1--------1-----------1--------
D|-----4-----------4--------------2--------------------------2--------4-----4-----------2-----------2-----------
A|--2-----------2--------------0--------------------------2--------------------------2-----------2--------------
E|-----------------------------------------------------0-----------0--------------0-----------0-----------------

E|-----2--------0-----------------------------------------------------------------------------------------------
B|--------3--------3-----2-----------0-----------------------------------------------0--------------------------
G|-----------4--------4-----------4-----------2-----------1--------1--------1v-2--------------1-----------1-----
D|--------------4--------------------------2--------2-----------2--------------------------2-----------2--------
A|--2--------------------------0--------0--------0-----------2-----------2--------------2-----------2-----------
E|--------------------------------------------------------0-----------0--------------0-----------0--------------

E|-----------------------------------------------2-----------------------
B|-----------------------------0-----------0-----3-----2-----------------
G|--1--------1--------1v-2--------------1--------4-----2--------------1--
D|--------2--------------------------2-----------------2-----------2-----
A|-----2-----------2--------------2--------------2-----0--------2--------
E|--0-----------0--------------0-----------------------------0-----------

Song lyrics here


Paste any tab in acousterr's tab maker and we'll play it !!!
Now supports capo and sound effects for vibrato/pull-off/hammer/bends/mutes etc !!! Checkout help section
tabs and chords, guitar tabs, music transcription, music technology, deep learning, music information retrieval, transcribe into tabs & chords, chordify, music renditions, songsterr, reverbnation, tabulature, bollywood chords, ultimate guitar, yousician, guitar lessons, acoustic guitar, electric guitar, guitar tuner, 911 tabs