Guitar Tabs for Whybmd

(/) Slide Up  (\) Slide Down  (h) Hammer On  (p) Pull Off  (b) Bend (r) Release (v) Vibrato (x) Muted

Tabs for Song : 

Song lyrics here
E|--------------------------------------------------------------------------------------------------------------------------------------------
B|--------------------------------------------------------------------------------------------------------------------------------------------
G|--------------------------------------------------------------------------------------------------------------------------------------------
D|--------------------------------------------------------------------------------------------------------------------------------------------
A|--------3--3--4--4-----------------------------------3--3--4--4-----------------------------------3--3--4--4--------------------------------
E|--6--6-----------------2--2--2--2--2--2--2-----6--6-----------------2--2--2--2--2--2--2-----6--6-----------------2--2--2--2--2-----4-----6--

E|-----------------------------------------------------------------------------------------------------------------------------------------------------------------------------------------------
B|-----------------------------------------------------------------------------------------------------------------------------------------------------------------------------------------------
G|-----------------------------------------------------------------------------------------------------------------------------------------------------------------------------------------------
D|-----------------------------------------------------------------------------------------------------------------------------------------------------------------------------------------------
A|--------3-----4--------------------3-----4--------------------3-----4-----------------------------------3-----4--------------------3-----4--------------------3-----4--------------------------
E|--6-----------------2--------6-----------------2--------6-----------------2--------4--------6-----6-----------------2--------6-----------------2--------6-----------------2--------4--------6--

E|-----------------------------------------------------------------------------------------------------------------------------------------------------------------------
B|-----------------------------------------------------------------------------------------------------------------------------------------------------------------------
G|-----------------------------------------------------------------------------------------------------------------------------------------------------------------------
D|-----------------------------------------------------------------------------------------------------------------------------------------------------------------------
A|-----------------------------------8--8-----------------------------------8--8--------------------------------------8--8--------------------------------------8--8-----
E|--9--9--9--8--9-----8--9--8--9--------------9--9--9--8--9--8--9--8--9--------------9--9--9--8--9-----8--9--8--9--------------9--9--9--8--9-----8--9--8--9--------------



Song lyrics here
E|--
B|--
G|--
D|--
A|--
E|--

Paste any tab in acousterr's tab maker and we'll play it !!!
Now supports capo and sound effects for vibrato/pull-off/hammer/bends/mutes etc !!! Checkout help section
tabs and chords, guitar tabs, music transcription, music technology, deep learning, music information retrieval, transcribe into tabs & chords, chordify, music renditions, songsterr, reverbnation, tabulature, bollywood chords, ultimate guitar, yousician, guitar lessons, acoustic guitar, electric guitar, guitar tuner, 911 tabs