Guitar Tabs for Westworld Theme Song

(/) Slide Up  (\) Slide Down  (h) Hammer On  (p) Pull Off  (b) Bend (r) Release (v) Vibrato (x) Muted

Tabs for Song : 

Song lyrics here
C|-----------------------------------------------------------------------------------------3-----------------------------------------------------------------------------
G|-----------------------------------------------------------------------4--------6--------------------------------------------------------------------------------------
E|--5-----------------------------------------------------------5--------------------------------------------------------------------------------------------------------
B|--5-----------------------------6-----------------------------5-----------------------------------6--------------------------------------------------------------------
F|--3-----------------------------6-----------------------------3-----------------------------------6--------------------------------------------------------------------
C|--------------------------------4-----------------------------------------------------------------4-----4-----4-----4-----4-----4-----4-----4-----4-----4-----4-----4--

C|--------------3-----------------------------------------------------------------------------------------------------
G|-----------------------6--------4-----------------------------------------------------------------------------------
E|-----5-----------------------------------------------------------------------------------------------------------5--
B|-----5-----------------------------------6-----------------------------------------------------------------------5--
F|-----3-----------------------------------6-----------------------------------------------------------------------3--
C|-----------------------------------------4-----4-----4-----4-----4-----4-----4-----4-----4-----4-----4-----4--------

C|-----------------------------3-----------------------------------------------------4--------------------------------------------------------------
G|-----------4--------6-----------------------------------------------------------------------8--------6--------------------------------------------
E|--------------------------------------------------------------------------6-----------------------------------7-----------------------------------
B|--------------------------------------6-----------------------------------6-----------------------------------5--5--5--5--5--5--5--5--5--5--5--5--
F|--------------------------------------6-----------------------------------4-----------------------------------------------------------------------
C|--------------------------------------4--4--4--4--4--4--4--4--4--4--4--4--------------------------------------------------------------------------

C|-----------------------------------------------------------------------------------------------------------------
G|--8-----9--8-----9--8--------------------------------------------------------------------------------------------
E|-----------------------10-8-----------10----------------------------------10----12-10----12-10-8-----------------
B|--------------------------------------------------------------------------------------------------8-----------10-
F|-----------------------------------------------------------------------------------------------------------------
C|-----------------------------------------------------------------------------------------------------------------

C|-----------------------------------------------------------------------------------------------------------
G|-----------------------------------9-----11-9-----11-9--8-----------9--8v----------------------------------
E|-----------------------------------------------------------10----------------------------------------------
B|-----------------------------------------------------------------------------------------------------------
F|-----------------------------------------------------------------------------------------------------------
C|-----------------------------------------------------------------------------------------------------------

C|--------------------------------------------------------------------------------------------------------------------------------------------
G|-----------------------4-----6-----------------------------2-----4-----------------------------2-----4-----------------------------0-----2--
E|-----------------6-----------------------------------5-----------------------------------4-----------------------------------3--------------
B|-----------5-----------------------------------5-----------------------------------5-----------------------------------5--------------------
F|-----4-----------------------------------3-----------------------------------2-----------------------------------1--------------------------
C|--------------------------------------------------------------------------------------------------------------------------------------------

C|-----------------------7-----8-----------------------------7-----8-----------------------------7-----8-----------------------------7-----8--
G|--------------------------------------------------------------------------------------------------------------------------------------------
E|--------------------------------------------------------------------------------------------------------------------------------------------
B|-----------------10----------------------------------10----------------------------------10----------------------------------10-------------
F|-----------10----------------------------------10----------------------------------10----------------------------------10-------------------
C|-----8-----------------------------------8-----------------------------------8-----------------------------------8--------------------------

C|-----------------------------------------------------------------------------------------------------------------------------------------------------------
G|-----------------------8-----9-----------------------------8-----9-----------------------------8-----9-----------------------------8-----9-----------------
E|-----------------8-----------------------8-----------8-----------------------8-----------8-----------------------8-----------8-----------------------8-----
B|-----------6-----------------------------------6-----------------------------------6-----------------------------------6-----------------------------------
F|-----------------------------------------------------------------------------------------------------------------------------------------------------------
C|-----------------------------------------------------------------------------------------------------------------------------------------------------------

C|--------------------7-----8-----------------------------7-----8-----------------------------7-----8-----------------------------7-----8--
G|-----------------------------------------------------------------------------------------------------------------------------------------
E|-----------------------------------------------------------------------------------------------------------------------------------------
B|--------------10----------------------------------10----------------------------------10----------------------------------10-------------
F|--------10----------------------------------10----------------------------------10----------------------------------10-------------------
C|--8-----------------------------------8-----------------------------------8-----------------------------------8--------------------------

C|-----------------------------------------------------------------------------------------------------------------------------------
G|-----8-----9--8-----9--8-----------------------------------------------------------------------------11-------9--8-----------------
E|--------------------------10-8-----------10----12-10----12-10-8--------------10----12-10----12-10-12-------------------------------
B|-----------------------------------------------------------------8-----------------------------------------------------------------
F|-----------------------------------------------------------------------------------------------------------------------------------
C|-----------------------------------------------------------------------------------------------------------------------------------

C|--------------------------------------------8-----------11-------10----11-10-8--------------
G|--------------------8-----9--8-----9--8--9--------------------------------------8-----------
E|--------------------------------------------------------------------------------------------
B|--------------------------------------------------------------------------------------------
F|--------------------------------------------------------------------------------------------
C|--------------------------------------------------------------------------------------------

C|-----------------------------------------------------------------------------------------------------------------------------------------------------
G|--------------------4-----6-----------------------------2-----4-----------------------------2-----4-----------------------------0-----2--------------
E|--------------6-----------------------------------5-----------------------------------4-----------------------------------3-----------------------5v-
B|--------5-----------------------------------5-----------------------------------5-----------------------------------5-----------------------------5v-
F|--4-----------------------------------3-----------------------------------2-----------------------------------1-----------------------------------3v-
C|-----------------------------------------------------------------------------------------------------------------------------------------------------

Song lyrics here
C|--
G|--
E|--
B|--
F|--
C|--

Paste any tab in acousterr's tab maker and we'll play it !!!
Now supports capo and sound effects for vibrato/pull-off/hammer/bends/mutes etc !!! Checkout help section
tabs and chords, guitar tabs, music contests, music covers, songsterr, reverbnation, renditions, tabulature, bollywood chords, ultimate guitar, yousician, guitar lessons, torrins, fender, gibson, acoustic guitar, electric guitar, youtube covers, gootar, guitar tuner, A-Z tabs, 911 tabs