Guitar Tabs for Westworld Main Theme

(/) Slide Up  (\) Slide Down  (h) Hammer On  (p) Pull Off  (b) Bend (r) Release (v) Vibrato (x) Muted

Tabs & Chords

Check Track 2 for Chord Positions 

    A     F     Am                      C     Am                      Am                      Em 
E|--------------------------------0-----0-----------0-----------------------------------0-----0--
B|--------------------------3-----------------------------3-----------------------3--------------
G|--------------------5-----------------------------------------5-----------5--------------------
D|--7-----3-----7-----------------------------7-----------------------7--------------------------
A|-----------------------------------------------------------------------------------------------
E|-----------------------------------------------------------------------------------------------

       A#                      Am          Dm          F           Dm    G     C              
E|-----------------0-----------0-----0--------0--------0-----------------------0--------0-----
B|-----------6-----------3-----------------6--------6-----3--------3-----3--------3--------3--
G|-----3-----------------------------------------------------5--------------------------------
D|--------------------------------------------------------------------------------------------
A|--------------------------------------------------------------------------------------------
E|--------------------------------------------------------------------------------------------

             Am          Dm                D     C        Am       A                          
E|-----------------------3--------3-----0-----------0--------0-----4--5-----0-----4--5-----0--
B|-----------------6--------6--------6-----3-----6--------------6--------------6--------------
G|--5--0--------------------------------------------------5--------------5--------------5-----
D|-----------7--------------------------------------------------------------------------------
A|--------------------------------------------------------------------------------------------
E|--------------------------------------------------------------------------------------------

                         F                                                           A        
E|-----4--5-----0-----4--5--------4--5-----------4--5--------4--5--------4--5--------0-----4--
B|--6--------------6-----------6--------------6-----------6-----------6-----------------6-----
G|-----------5--------------5--------------5-----------5-----------5--------------5-----------
D|--------------------------------------------------------------------------------------------
A|--------------------------------------------------------------------------------------------
E|--------------------------------------------------------------------------------------------

                                                    Dm                   D        C           
E|--5-----0-----4--5-----0-----4--5-----0-----4--5--0--------0--------0-----------------0-----
B|-----------6--------------6--------------6--------------6--------6-----3--------3--------3--
G|-----5--------------5--------------5--------------------------------------5-----------------
D|--------------------------------------------------------------------------------------------
A|--------------------------------------------------------------------------------------------
E|--------------------------------------------------------------------------------------------

                      Em                                     A     F                          
E|-----0--------------------0--------0-----0--3--------0-----0--------0--------0-----5-----8--
B|--------3-----------3--------3--------3-----------6--------------6--------6-----6-----------
G|-----------5--0-----------------------------------------------------------------------------
D|--------------------------------------------------------------------------------------------
A|--------------------------------------------------------------------------------------------
E|--------------------------------------------------------------------------------------------

       D                       A  
E|-----8--7-----8--7--5--0--------
B|--------------------------------
G|--------------------------------
D|-----------------------------7--
A|--------------------------------
E|--------------------------------

Guitar Tabs for Westworld Main Theme






    A     F     Am                      C     Am                      Am                      Em 
E|--0-----1-----0-----------------------0-----0-----------------------0-----------------------0--
B|--2-----1-----1-----------------------1-----1-----------------------1-----------------------0--
G|--2-----2-----2-----------------------0-----2-----------------------2-----------------------0--
D|--2-----3-----2-----------------------2-----2-----------------------2-----------------------2--
A|--0-----3-----0-----------------------3-----0-----------------------0-----------------------2--
E|--------1-----------------------------------------------------------------------------------0--

       A#                      Am          Dm          F           Dm    G     C              
E|-----1-----------------------0-----------1-----------1-----------1-----3-----0--------------
B|-----3-----------------------1-----------3-----------1-----------3-----3-----1--------------
G|-----3-----------------------2-----------2-----------2-----------2-----4-----0--------------
D|-----3-----------------------2-----------0-----------3-----------0-----5-----2--------------
A|-----1-----------------------0-----------------------3-----------------5-----3--------------
E|-----------------------------------------------------1-----------------3--------------------

             Am          Dm                D     C        Am       A                          
E|-----------0-----------1-----------------2-----0--------0--------0--------------------------
B|-----------1-----------3-----------------3-----1--------1--------2--------------------------
G|-----------2-----------2-----------------2-----0--------2--------2--------------------------
D|-----------2-----------0-----------------0-----2--------2--------2--------------------------
A|-----------0-----------------------------------3--------0--------0--------------------------
E|--------------------------------------------------------------------------------------------

                         F                                                           A        
E|-----------------------1-----------------------------------------------------------0--------
B|-----------------------1-----------------------------------------------------------2--------
G|-----------------------2-----------------------------------------------------------2--------
D|-----------------------3-----------------------------------------------------------2--------
A|-----------------------3-----------------------------------------------------------0--------
E|-----------------------1--------------------------------------------------------------------

                                                    Dm                   D        C           
E|--------------------------------------------------1--------------------2--------0-----------
B|--------------------------------------------------3--------------------3--------1-----------
G|--------------------------------------------------2--------------------2--------0-----------
D|--------------------------------------------------0--------------------0--------2-----------
A|--------------------------------------------------------------------------------3-----------
E|--------------------------------------------------------------------------------------------

                      Em                                     A     F                          
E|--------------------0--------------------------------------0-----1--------------------------
B|--------------------0--------------------------------------2-----1--------------------------
G|--------------------0--------------------------------------2-----2--------------------------
D|--------------------2--------------------------------------2-----3--------------------------
A|--------------------2--------------------------------------0-----3--------------------------
E|--------------------0--------------------------------------------1--------------------------

       D                       A  
E|-----2-----------------------0--
B|-----3-----------------------2--
G|-----2-----------------------2--
D|-----0-----------------------2--
A|-----------------------------0--
E|--------------------------------

tabs and chords, guitar tabs, music transcription, music technology, deep learning, music information retrieval, transcribe into tabs & chords, chordify, music renditions, songsterr, reverbnation, tabulature, bollywood chords, ultimate guitar, yousician, guitar lessons, acoustic guitar, electric guitar, guitar tuner, 911 tabs