Welcome To The Jungle Lullaby - Guitar Tabs

(/) Slide Up  (\) Slide Down  (h) Hammer On  (p) Pull Off  (b) Bend (r) Release (v) Vibrato (x) Muted

Tabs for Song : Welcome to the jungle
BPM : 60

into--



E|-------------------|-----------------|-----------------|2----------|
B|-------------------|-----------------|-----------------|3----------|
G|--2--0-------------|2--0-------------|2--0-------------|2----------|
D|--------2--0-------|------2--0-------|------2--0-------|0----------|
A|--------------3--0-|------------3--0-|------------3--0-|-----------|
E|-------------------|-----------------|-----------------|-----------|

chorus--

    a#    c     d     d     a#    c     d     d     a#    c     d     d     a#    c     d  -  -  -
E|--1-----0----|2-----2----|1-----0----|2-----2----|1-----0----|2-----2----|1-----0----|2----------|
B|--3-----1----|3-----3----|3-----1----|3-----3----|3-----1----|3-----3----|3-----1----|3----------|
G|--3-----0----|2-----2----|3-----0----|2-----2----|3-----0----|2-----2----|3-----0----|2----------|
D|--3-----2----|0-----0----|3-----2----|0-----0----|3-----2----|0-----0----|3-----2----|0----------|
A|--1-----3----|-----------|1-----3----|-----------|1-----3----|-----------|1-----3----|-----------|
E|-------------|-----------|-----------|-----------|-----------|-----------|-----------|-----------|



verse--

    g     f     g     f  c  d     c     d     c  g
E|--3-----1----|3-----1--0-|2-----0----|2-----0--3-|
B|--3-----1----|3-----1--1-|3-----1----|3-----1--3-|
G|--4-----2----|4-----2--0-|2-----0----|2-----0--4-|
D|--5-----3----|5-----3--2-|0-----2----|0-----2--5-|
A|--5-----3----|5-----3--3-|------3----|------3--5-|
E|--3-----1----|3-----1----|-----------|---------3-|

chorus--

    a#    c     d     d     a#    c     d     d     a#    c     d     d     a#    c     d  -  -  -
E|--1-----0----|2-----2----|1-----0----|2-----2----|1-----0----|2-----2----|1-----0----|2----------|
B|--3-----1----|3-----3----|3-----1----|3-----3----|3-----1----|3-----3----|3-----1----|3----------|
G|--3-----0----|2-----2----|3-----0----|2-----2----|3-----0----|2-----2----|3-----0----|2----------|
D|--3-----2----|0-----0----|3-----2----|0-----0----|3-----2----|0-----0----|3-----2----|0----------|
A|--1-----3----|-----------|1-----3----|-----------|1-----3----|-----------|1-----3----|-----------|
E|-------------|-----------|-----------|-----------|-----------|-----------|-----------|-----------|

About Onew - Lee Jin-ki was discovered at the 2006 SM Academy Casting and signed the contract with SM Entertainment the day after his audition . He debuted as one of the lead vocalists and leader of Shinee in May 2008 . Onew made his solo debut on December 5, 2018 with the release of his first extended play, Voice, five days before his military conscription on December 10, 2018 . The album peaked at number two on the South Korea's Gaon Album Chart . Onew was discovered at the 2006 SM Academy Casting . He signed the contract with the company the day after he auditioned . Shinee debuted on May 25, 2008 on SBS' Inkigayo . Onew had an affiliation to band(s) - Shinee. Onew's music is influenced by genre(s) - k-pop r&b.

tabs and chords, guitar tabs, music transcription, music technology, deep learning, music information retrieval, transcribe into tabs & chords, chordify, music renditions, songsterr, reverbnation, tabulature, bollywood chords, ultimate guitar, yousician, guitar lessons, acoustic guitar, electric guitar, guitar tuner, 911 tabs