Guitar Tabs for Welcome

(/) Slide Up  (\) Slide Down  (h) Hammer On  (p) Pull Off  (b) Bend (r) Release (v) Vibrato (x) Muted

Tabs for Song : 
BPM : 200

Song lyrics here 
E|--------------------------------------------------------------------------------------------------------------
B|--------------------------------------------------------------------------------------------------------------
G|--------------------------------------------------------------------------------------------------------------
D|--------------------------------7-----------------------------------------------------7-----------------------
A|---5h7--0--7--7-----7--0-----5-----5---------------------5h7--0--7--7-----7--0-----5-----5--------------------
E|--------------------------------------5-----5--5--7-----------------------------------------5-----5--5--7-----

E|-----------------------------------------------------------------------------------------------------------------
B|-----------------------------------------------------------------------------------------------------------------
G|-----------------------------------------------------------------------------------------------------------------
D|-----------------------------------------------------------------------------------------------------------------
A|--7-----7-----7--7--0--5-----5--5--5--5--5--5--0-----7--0--7--7--0--7-----0--7--0--7--7-----7--0-----7-----7--7--
E|-----------------------------------------------------------------------------------------------------------------

E|--------------------------------------------------------------------------------------------------------
B|--------------------------------------------------------------------------------------------------------
G|--------------------------------------------------------------------------------------------------------
D|---5p4---------------------------4h5------4h-5p4--------------------------------------------------------
A|--------0--5-----5--5--5--5-----------------------------------------------2-----2--2--2--2--2--2--2--0--
E|-----------------------------------------------------3-----3--3--3--5-----------------------------------

E|--------------------------------------------------------------------------------------------------------------
B|--------------------------------------------------------------------------------------------------------------
G|--------------------------------------------------------------------------------------------------------------
D|---------------5p4------------------------4h-5p-4p0-----------------------------------------------------------
A|--7-----7--7--------0--5-----5--5--5--5-----------------7--0--7--7--0--7-----0--7--0--7--7--0-----7-----7--7--
E|--------------------------------------------------------------------------------------------------------------

E|--------------------------------------------------------------------------------------------------------------------
B|--------------------------------------------------------------------------------------------------------------------
G|--------------------------------------------------------------------------------------------------------------------
D|---5p4---------------------------4h5---4h-5p4-----------------------------------------------------------------------
A|--------0--5-----5--5--5--5--------------------------------------2-----2--2--2--2--2--2--2--0-----------------------
E|-----------------------------------------------3-----3--3--3--5-----------------------------------3-----3--3--3--5--

E|-----------------------------------------------------------------------------------------------------------
B|-----------------------------------------------------------------------------------------------------------
G|-----------------------------------------------------------------------------------------------------------
D|-----------------------------------------------------------------------------------------------------------
A|--2-----2--2--2--2-----2--2--2-----2--2--2--2-----2--2--0--------------------------------------------------
E|--------------------------------------------------------------0--0--0--0--0--3-----3--3--3--3-----3--3--3--

E|--------------------------------------------------
B|--------------------------------------------------
G|--------------------------------------------------
D|--------------------------------------------------
A|--------------------3-----3--3--3--3---3h5--5--0--
E|--5--5--5--5--5-----------------------------------

Song lyrics here 
E|--
B|--
G|--
D|--
A|--
E|--

Use manual mode to free up cursor. Paste any tab in acousterr tab maker and we'll play it !!!
tabs and chords, guitar tabs, music transcription, music technology, deep learning, music information retrieval, transcribe into tabs & chords, chordify, music renditions, songsterr, reverbnation, tabulature, bollywood chords, ultimate guitar, yousician, guitar lessons, acoustic guitar, electric guitar, guitar tuner, 911 tabs