Guitar Tabs for Welcome To Japan By The Strokes

(/) Slide Up  (\) Slide Down  (h) Hammer On  (p) Pull Off  (b) Bend (r) Release (v) Vibrato (x) Muted

Tabs for Song : welcome to japan
BPM : 200

intro and verse 
x3
E|--------------------------------------------------------------
B|--------------------------------------------------------------
G|--------------------------------------------------------------
D|--------------------------------------------------------------
A|--5--5--5-----5--5--5--------------------------------3--3--3--
E|-----------------------4--4--4--3--3--3-----3--3--3-----------


E|-----------------------------------------------------------------
B|-----------------------------------------------------------------
G|-----------------------------------------------------------------
D|-----------------------------------------------------------------
A|--5--5--5-----5--5--5--------------------------------------3-----
E|-----------------------4--4--4--3--3--3-----3--3--3--1-----------

pre-chorus (i didn't wanna notice)
E|--------------------------------------------------------
B|--------------------------------------------------------
G|--------------------------------------------------------
D|--------------------------------------------------------
A|--5--5--5-----3--3--3-----1--1--1-----------------3-----
E|--------------------------------------1--1--1-----------

E|-----------------------------------------------------------------
B|-----------------------------------------------------------------
G|-----------------------------------------------------------------
D|--------------------------------------3--3--3--3--3--3-----------
A|--5--5--5-----3--3--3-----1--1--1--------------------------3-----
E|--------------------------------------------------------1-----1--
chorus (come here and go get with me)
x2
E|--------------------------------------------
B|--------------------------------------------
G|--------------------------------------------
D|--------------------------------------------
A|--10-------8-----------8--------------------
E|--------------8-----------------8--10-------
instrumental (welcome to japan)
x2
E|--------------------------------------------------------------
B|--------------------------------------------------------------
G|--------------------------------------------------------------
D|--------------------------------------------------------------
A|--5--5--5-----5--5--5--------------------------------3--3--3--
E|-----------------------4--4--4--3--3--3-----3--3--3-----------

E|-----------------------------------------------------------------
B|-----------------------------------------------------------------
G|-----------------------------------------------------------------
D|-----------------------------------------------------------------
A|--5--5--5-----5--5--5--------------------------------------3-----
E|-----------------------4--4--4--3--3--3-----3--3--3--1-----------
pre-chorus 2 (i didn't wanna notice)
E|--------------------------------------------------
B|--------------------------------------------------
G|--------------------------------------------------
D|--------------------------------------------------
A|--5--5--5-----3--3--3-----1--1--1--------------3--
E|--------------------------------------1--1--1-----

E|--------------------------------------------------------
B|--------------------------------------------------------
G|--------------------------------------------------------
D|-----------------------------------------3--------------
A|--5--5--5--------3--3--3-----1--1--1--------------3--3--
E|--------------------------------------------1--1--------
(i didn't wanna warn ya)
E|-----------------------------------------------------------------
B|-----------------------------------------------------------------
G|-----------------------------------------------------------------
D|-----------------------------------------------------3-----------
A|--5--5--5-----3--3--3-----------1--1--1--------------------3-----
E|--------------------------------------------1--1--1--------------

E|------------------------------------------------------------------------------------------
B|-----------------------------------------------------------------------------------------
G|-----------------------------------------------------------------------------------------
D|--------------------------------------------------------------3--3--3--3--3--3-----------
A|--5--5--5--10----8--------------8-----7--------------------------------------------3-----
E|-----------------------8--8--8--------------6--6--6-----------------------------1-----1--
chorus (come here and go get with me)
x2
E|-----------------------------------------
B|-----------------------------------------
G|-----------------------------------------
D|-----------------------------------------
A|--10----8-----------8--------------------
E|-----------8--------------8--10----------
instrumental and first part verse 2 (you did it alone)
E|--------------------------------------------------------------------------
B|--------------------------------------------------------------------------
G|--------------------------------------------------------------------------
D|--------------------------------------------------------------------------
A|--5--------3---------1/------8-----------5--------3--------1--------8-----
E|--------------------------------------------------------------------------

E|-----------------------------------------------------------
B|-----------------------------------------------------------
G|-----------------------------------------------------------
D|-----------------------------------------------3-----------
A|--5--5--5-----3--3--3-----1--1--1--------------------3-----
E|--------------------------------------1--1--1--------------

E|--------]-------------------------------------------------------------------------------
B|--------------------------------------------------------------------------------------
G|--------------------------------------------------------------------------------------
D|--------------------------------------------------------------------------3-----------
A|-----------12----10-------------8-----7--------------10-----8\------------------3-----
E|--10-10-10-------------8--8--8--------------6--6--6--------------1--1--1--------------

E|--------------------------------------------------------------------------------------------------------
B|--------------------------------------------------------------------------------------------------------
G|-----------------------------------------------------------------------------------------------5-----3--
D|--------------------------------------------------------------------------------------------------------
A|--5--5--5--5--5--5--5--5-----3--3--3--3--3--3--3--3-----1--1--1--1--1--1--1--1--------------------------
E|-----------------------------------------------------------------------------------1--1--1--1-----------
pre-chorus (didn't wanna floor ya)
E|--------------------------------------------------------------------------------------------------------
B|--------------------------------------------------------------------------------------------------------
G|--------------------------------------------------------------------------------------------------------
D|--------------------------------------------------------------------------------3--3--3--3--7-----5-----
A|--5--5--5--5--5--5--5--5-----3--3--3--3--3--3--3--3-----1--1--1--1--1--1--1--1--------------------------
E|--------------------------------------------------------------------------------------------------------
is it even broken, like a lovesick
E|--------------------------------------------------------------------------------------------------------1
B|--------------------------------------------------------------------------------------------------------
G|--------------------------------------------------------------------------------------------------------
D|--------------------------------------------------------------------------------------------------------
A|--5--5--5--5--5--5--5--5-----7--7--7--7--7--7--7--7-----8--8--8--8--8--8--8--8--------------------------
E|-----------------------------------------------------------------------------------1--1--1--1--1--1---1/

E|-----------------------------------------------
B|-----------------------------------------------
G|-----------------------------------------------
D|-----------------------------------------------
A|-----------------------------------------------
E|--10-------8--------6--------1--------6--------

Use manual mode to free up cursor. Paste any tab in acousterr tab maker and we'll play it !!!
tabs and chords, guitar tabs, music transcription, music technology, deep learning, music information retrieval, transcribe into tabs & chords, chordify, music renditions, songsterr, reverbnation, tabulature, bollywood chords, ultimate guitar, yousician, guitar lessons, acoustic guitar, electric guitar, guitar tuner, 911 tabs