Chords/ Songs - Guitar Tabs

7th chords:

1)

   E7X4.     A7X4.    E7X4.    D7X4
E|--0-----------------0--------2-----
B|--0--------2--------0--------1-----
G|--1--------0--------1--------2-----
D|--0--------2--------0--------0-----
A|--2--------0--------2--------------
E|--0-----------------0--------------

2)
    C7X4.    G7X4.   C7X4.    A7X4.  
E|-----------1-----------------------
B|--1--------0--------1--------2-----
G|--3--------0--------3--------0-----
D|--2--------0--------2--------2-----
A|--3--------2--------3--------0-----
E|-----------3-----------------------

3)
   E74.      A7X4.    D7X4.   
E|--0--------0--------2--------------
B|--0--------2--------1--------------
G|--1--------0--------2--------------
D|--0--------2--------0--------------
A|--2--------0-----------------------
E|--0--------------------------------

SUMMER 69:
   DX8.     AX8.  
E|--2--------------------------------
B|--3--------2-----------------------
G|--2--------2-----------------------
D|--0--------2-----------------------
A|-----------0-----------------------
E|-----------------------------------

MELODY:

E|--2--0--3--2--0--2-----------------------
B|-----------------------2--0--3--2--0--2--
G|-----------------------------------------
D|-----------------------------------------
A|-----------------------------------------
E|-----------------------------------------

About Dream Brother: The Songs of Tim and Jeff Buckley : The Songs of Tim and Jeff Buckley is a studio album performed by various artists . Both father and son died prematurely, Tim Buckley of an overdose and his son, Jeff Buckley in a drowning accident . It was released in 2006. The genre is folk, rock, pop. The track was release in 2006. Dream Brother: The Songs of Tim and Jeff Buckley has a significant contribution from artist(s) Jeff Buckley,Jeff Buckley.

tabs and chords, guitar tabs, music transcription, music technology, deep learning, music information retrieval, transcribe into tabs & chords, chordify, music renditions, songsterr, reverbnation, tabulature, bollywood chords, ultimate guitar, yousician, guitar lessons, acoustic guitar, electric guitar, guitar tuner, 911 tabs