Guitar Tabs for Waste It On Me - Steve Aoki Ft. Bts

(/) Slide Up  (\) Slide Down  (h) Hammer On  (p) Pull Off  (b) Bend (r) Release (v) Vibrato (x) Muted

Tabs for Song : capo on 7th fret
BPM : 200

Song lyrics here
E|--------------------------------------------------------------------------------------------------------------------
B|-----------1-----------1---1h3--1--------------1-----------0---3\5--3--1--------------1-----------1---1h3--1--------
G|--------2-----------2--------------2--------0-----------0--------------------------2-----------2--------------2-----
D|-----2-----------3-----------------------2-----------0--------------------------2-----------3-----------------------
A|--0-----------0-----------------------3--------------------------------------0-----------0-----------------------3--
E|--------------------------------------------------3-----------------------------------------------------------------

E|--------------------------------------------------------------------------------------------------------------------
B|--------1-----------0---3\5--3--1-----------------------------------------------------------------------------------
G|-----0-----------0--------------------------------------------------------------------------------------------------
D|--2-----------0-----------------------------------------------------------------------------------------------------
A|--------------------------------------------------------------------------------------------------------------------
E|-----------3--------------------------------------------------------------------------------------------------------

E|-----------------------------------------------------------------------------------------------------------------
B|-----------------------------------------------------------------------------------------------------------------
G|-----------------------------------------------------------------------------------------------------------------
D|-----2--2--2---0h2--0--------------------------2--2--2--2---2h5-----------------------------------2--2--2--2-----
A|--0--------------------3-----3--3--3--3--3--2--------------------3-----3--3--2--2--------------0-----------------
E|--0--------------------------------------------------------------------2--2--1--1--------------0-----------------

E|--------------------------------------------------------------------------------------------------------------------
B|--------------------------------------------------------------------------------------------------------------------
G|--------------------------------------------------------------------------------------------------------------------
D|---0h2--0--------------------------2--2--2--2---2h5-----------------------------------------------------------------
A|-----------3-----3--3--3--3--3--2--------------------3-----3-----3-----2-----2--------------------------------------
E|-----------------------------------------------------------2-----2-----1-----1--------------------------------------

E|-----------------------0--------0-----------------------------------0--------0-----------------------------------0--
B|-----0--1--0--------------1--------1--3-----------0--1--0--------------1--------1--3-----------0--1--0--------------
G|--2-----2-----2--2--0-----------------2--------2-----2-----2--2--0-----------------2--------2-----2-----2--2--0-----
D|-----------------2-----------2--------------------------------2-----------2--------------------------------2--------
A|-----------------3-----------3--------------------------------3-----------3--------------------------------3--------
E|--------------------------------------------------------------------------------------------------------------------

E|--------0-----------------------------------------------------0--------------------------------------------------0--
B|--1--------1--3-----------0--1--0---------------------------------1h3--------1--1--1--1--1--1--1--1--1--1--1--0-----
G|--------------2--------2-----2-----2--2--0--2--0-----------2--------------------------2-----------0-----------0-----
D|-----2--------------------------------2-----------2--2--0-----------------------------2-----------2-----------0-----
A|-----3--------------------------------3-----------------------------------------------0-----------3-----------------
E|--------------------------------------------------------------------------------------------------------------2-----

E|--3--3--------------------------------------------0--3--3--------------------------------------------0--3--3--------
B|--------1-----1--1--1--1--1--1--1--1--1--1--1--0-----------1-----1--1--1--1--1--1--1--1--1--1--1--0-----------1-----
G|-----------------------2-----------0-----------0--------------------------2-----------0-----------0-----------------
D|-----------------------2-----------2-----------0--------------------------2-----------2-----------0-----------------
A|-----------------------0-----------3--------------------------------------0-----------3-----------------------------
E|-----------------------------------------------2--------------------------------------------------2-----------------

E|--------------------------------------0--3--3--------------------------
B|--1--1--1--1--1--1--1--1--1--1--1--0-----------1-----1--3--3-----------
G|-----------2-----------0-----------0---------------------------0h2--0--
D|-----------2-----------2-----------0-----------------------------------
A|-----------0-----------3-----------------------------------------------
E|-----------------------------------2-----------------------------------


Paste any tab in acousterr's tab maker and we'll play it !!!
Now supports capo and sound effects for vibrato/pull-off/hammer/bends/mutes etc !!! Checkout help section
tabs and chords, guitar tabs, music transcription, music technology, deep learning, music information retrieval, transcribe into tabs & chords, chordify, music renditions, songsterr, reverbnation, tabulature, bollywood chords, ultimate guitar, yousician, guitar lessons, acoustic guitar, electric guitar, guitar tuner, 911 tabs