Guitar Tabs for It Might Have Been You (steve Cook)

(/) Slide Up  (\) Slide Down  (h) Hammer On  (p) Pull Off  (b) Bend (r) Release (v) Vibrato (x) Muted

Tabs for Song : I Might Have Been You (Steve Cook)

BPM : 200

    B           D           A                       E
E|--------------------------------------9-----9--11-12-12-12-11-------------------------
B|-----------------------------------------12----------------------12-------------------
G|--------------7--------------------------------------------------------12r11----9-----
D|--9-----------7-----------7-----------------------------------------------------------
A|--9-----------5-----------7-----------------------------------------------------------
E|--7-----------------------5-----------------------------------------------------------
                         C#m                                          E
E|--11b12r11----9--------9-----9--9-----------------------9-----9--11-12-12-12-11----------------------
B|-----------------12-9--------------9--9--9-----------------12----------------------12----------------
G|--------------------------------------------9--------------------------------------------12r11----9--
D|-----------------------------------------------------------------------------------------------------
A|-----------------------------------------------------------------------------------------------------
E|-----------------------------------------------------------------------------------------------------
    
                            C#m                                 C#m   B     A
E|--11b12r11----9-----------9-----9--9--------------------------9-----7-----5--------
B|--------------------12-9--------------9--9--9-----------------9-----7-----5--------
G|-----------------------------------------------9-----------9-----------------------
D|-----------------------------------------------------------------------------------
A|-----------------------------------------------------------------------------------
E|-----------------------------------------------------------------------------------
                                                 E                 C#m
E|--------------------------------------------------7--------------------7---9/11-
B|--------7------5h------------5---7b-8r7------5/9-----9--------------9-----------
G|--------7------5h6--------------------------------------------9--9--------------
D|-----------------------7--------------------------------------------------------
A|--------------------------------------------------------------------------------
E|--------------------------------------------------------------------------------
             F#m                                             B           A                              
E|-----------------------------------------------------------7-----7--7--5-----5--5--
B|------------7b-8r7--7--7------------7b-8r7--7--7-----------7-----7--7--5-----5--5--
G|-----------------------------6--6--------------------6--6--------------------------
D|-----------------------------------------------------------------------------------
A|--------------------------------------------------------------------------------------
E|--------------------------------------------------------------------------------------
    G#m         F#m         B (or start over) A           G#m    
E|--4-----4--4--2-----2--2--7-----7--7--5-----5--5--4-----4--4--
B|--4-----4--4--2-----2--2--7-----7--7--5-----5--5--4-----4--4--
G|--------------------------------------------------------------
D|--------------------------------------------------------------
A|--------------------------------------------------------------
E|--------------------------------------------------------------
    F#m         B           A           G#M         F#m         A                       B  
E|--2-----2--2--7-----7--7--5-----5--5--4-----4--4--2-----2--2--5-----------------------7--------
B|--2-----2--2--7-----7--7--5-----5--5--4-----4--4--2-----2--2--5-----------------------7--------
G|--------------------------------------------------------------6-----------------------8--------
D|--------------------------------------------------------------7-----------------------9--------
A|--------------------------------------------------------------7-----------------------9--------
E|--------------------------------------------------------------5-----------------------7--------
                E
E|-----------------------------0--
B|-----------------------------0--
G|--------------2--1-----------1--
D|--------------2--2--4--2-----2--
A|-----------------------------2--
E|-----------------------------0--

tabs and chords, guitar tabs, music transcription, music technology, deep learning, music information retrieval, transcribe into tabs & chords, chordify, music renditions, songsterr, reverbnation, tabulature, bollywood chords, ultimate guitar, yousician, guitar lessons, acoustic guitar, electric guitar, guitar tuner, 911 tabs