Guitar Tabs for Bleed American

 e|-------------------------|-------------------------|-----------------|
 B|-------------------------|-------------------------|-----------------|
 G|-----4-6-----4-6-----4---|-----4-6-----4-6-----4---|-----4-6-----4-6-|
 D|-4-4-----4-4-----4-4-----|-0-0-----0-0-----0-0-----|-4-4-----4-4-----|
 A|-4-4-----4-4-----4-4-----|-0-0-----0-0-----0-0-----|-4-4-----4-4-----|
 D|-4-4-----4-4-----4-4-----|-0-0-----0-0-----0-0-----|-4-4-----4-4-----|

 e|-------------------------|---------------------------------|
 B|-------------------------|---------------------------------|
 G|-----4-6-----4-6-----4---|---------------------------------|
 D|-4-4-----4-4-----4-4-----|-7-7-7-7-7-7-7-7-0-0-0-0-9-9-9-9-|
 A|-4-4-----4-4-----4-4-----|-7-7-7-7-7-7-7-7-0-0-0-0-9-9-9-9-|
 D|-4-4-----4-4-----4-4-----|-7-7-7-7-7-7-7-7-0-0-0-0-9-9-9-9-|

 e|---------------------------------|---------------------------------|
 B|---------------------------------|---------------------------------|
 G|---------------------------------|---------------------------------|
 D|---------------------------------|-----------------4-4-4-4-4-4-4-4-|
 A|-4-4-4-4-4-4-4-4-4-4-4-4-4-4-4-4-|-0-0-0-0-0-0-0-0-2-2-2-2-2-2-2-2-|
 D|-4-4-4-4-4-4-4-4-4-4-4-4-4-4-4-4-|-0-0-0-0-0-0-0-0-----------------|

 e||---------------------------------------||
 B||o-------------------------------------o||
 G||--11--11--11--11--11--11--11-11-11-11--||
 D||---x---x---x---x---x---x---x--x--x--x--||
 A||o--9---9---9---9---9---9---9--9--9--9-o||
 D||---------------------------------------||

                                         Play 3.5 times
 e||---------------------------------------------------||
 B||o-------------------------------------------------o||
 G||--11-11-11-11-11-11-11-11-11-11-11-11-11-11-11-11--||
 D||---x--x--x--x--x--x--x--x--x--x--x--x--x--x--x--x--||
 A||o--9--9--9--9--9--9--9--9--9--9--9--9--9--9--9--9-o||
 D||---------------------------------------------------||

 e|---------------------------------|---------------------------------|
 B|---------------------------------|---------------------------------|
 G|---------------------------------|---------------------------------|
 D|-4-4-4-4-4-4-4-4-4-4-4-4-4-4-4-4-|-0-0-0-0-0-0-0-0-0-0-0-0-0-0-0-0-|
 A|-4-4-4-4-4-4-4-4-4-4-4-4-4-4-4-4-|-0-0-0-0-0-0-0-0-0-0-0-0-0-0-0-0-|
 D|-4-4-4-4-4-4-4-4-4-4-4-4-4-4-4-4-|-0-0-0-0-0-0-0-0-0-0-0-0-0-0-0-0-|

                     (end Rhy.Fig.3) Rhy.Fill 1======================|
 e|---------------------------------|---------------------------------|
 B|---------------------------------|---------------------------------|
 G|---------------------------------|---------------------------------|
 D|-7-7-7-7-7-7-7-7-7-7-7-7-7-7-7-7-|-0-0-0-0-0-0-0-0-9-9-9-9-9-9-9-9-|
 A|-7-7-7-7-7-7-7-7-7-7-7-7-7-7-7-7-|-0-0-0-0-0-0-0-0-9-9-9-9-9-9-9-9-|
 D|-7-7-7-7-7-7-7-7-7-7-7-7-7-7-7-7-|-0-0-0-0-0-0-0-0-9-9-9-9-9-9-9-9-|

 e|-------------------------------------------------|
 B|-10-10-10-10-10-10-10-10--9--9--9--9--9--9--9--9-|
 G|-11-11-11-11-11-11-11-11-11-11-11-11-11-11-11-11-|
 D|-------------------------------------------------|
 A|-------------------------------------------------|
 D|-------------------------------------------------|

 e|-------------------------------------------------|
 B|-10-10-10-10-10-10-10-10-12-12-12-12-12-12-12-12-|
 G|-11-11-11-11-11-11-11-11-11-11-11-11-11-11-11-11-|
 D|-------------------------------------------------|
 A|-------------------------------------------------|
 D|-------------------------------------------------|

 e|-------------------------------------------------|
 B|-10-10-10-10-10-10-10-10----10----10----10----10-|
 G|-11-11-11-11-11-11-11-11-11----11----11----11----|
 D|-------------------------------------------------|
 A|-------------------------------------------------|
 D|-------------------------------------------------|

   Gtrs.1&2 w/Rhy.Fill 1
                              F^^^^^^^^^^^^^^^^^^^^^
 e|-------------------------------------------------|
 B|----10----10----10----10-12----------------------|
 G|-11----11----11----11----15b---------------------|
 D|-------------------------""----------------------|
 A|-------------------------------------------------|
 D|-------------------------------------------------|





tabs and chords, guitar tabs, music transcription, music technology, deep learning, music information retrieval, transcribe into tabs & chords, chordify, music renditions, songsterr, reverbnation, tabulature, bollywood chords, ultimate guitar, yousician, guitar lessons, acoustic guitar, electric guitar, guitar tuner, 911 tabs