American Spirits - Bass Tabs

(/) Slide Up  (\) Slide Down  (h) Hammer On  (p) Pull Off  (b) Bend (r) Release (v) Vibrato (x) Muted

Tabs for Song : American Sprits by Inner Wave
BPM : 159

Intro 

G|--------------------------------------------------------------------------------------------------------------------
D|---------------6h7---------------------------------6h7--------------------------6--6---7h9-----------9--------------
A|---------4h7--------7--7--7--4--7--7--7--7--4--4--------7--7--7--4--7--7--7--7--------------9--9--7-----7--9--9--9--
E|--------------------------------------------------------------------------------------------------------------------

G|--------------------------------------------------
D|--9--9--9--9-----------9--------------7--7--6--6--
A|--------------9--9--7-----7--9--9--9--------------
E|--------------------------------------------------

Verse 1
G|----------------------------------------------------------------------------------------------------------------------
D|------------------------------------6h7---------------------------6h7---7h9-----------9---------------9/11-11-11-9----
A|-----7--7--7--4--7--7--7--7---4h7--------7--7--7--4--7--7--7--7--------------9--9--7-----7--9--9--9-------------------
E|----------------------------------------------------------------------------------------------------------------------

G|--------------------------------------------------------------------------------------------------------------
D|-----------9--------------7--7--6--6---------------------------------6h7---------------------------6h7---7h9--
A|--9--9--7-----7--9--9--9--------------7--7--7--4--7--7--7--7---4h7--------7--7--7--4--7--7--7--7--------------
E|--------------------------------------------------------------------------------------------------------------

G|--------------------------------------------------------------------------------------------
D|-----------9--------------9--9--9--9-----------------------------9--9--7--7--6--6--4--4-----
A|--9--9--7-----7--9--9--9-----------------9-----9-----7--7-----7-----------------------------
E|--------------------------------------------------------------------------------------------

Main chorus (please don't let me down)
G|------------------------------------------------------------------------------------------------------------------------
D|------------------------------------------------------------------------------------------------------------------------
A|---0/4--4--4--4--4--4--4--4--4--4--4--4--4--4--4---4h2----------0/4--4--4--4--4--4--4--4--4--4--4--4-7--7--7--7---------
E|---------------------------------------------------------4h2-----------------------------------------------------2--2---

G|-----------------------------------------------------------------------------------------------------------------------
D|-----------------------------------------------------------------------------------------------------------------------
A|---------------------------------------------------------------------------------------------0/4--4--4--4--4--4--4--4--
E|--2--2--2--2--2--2--2--2--2--2--2--2--2--2--2--2--2--2--2--2--2--2--2--2--2--2--2--2--2--2-----------------------------

G|-----------------------------------------------------------------------------------------------------------------------
D|-----------------------------------------------------------------------------------------------------------------------
A|--4--4--4--4--4--4--4---4h2---------0/4--4--4--4--4--4--4--4--4--4--4--4--7--7--7--7-----------------------------------
E|------------------------------4h2-----------------------------------------------------2--2--2--2--2--2--2--2--2--2--2--

G|-----------------------------------------------------------------------------------------------------------------------
D|-----------------------------------------------------------------------------------------------------------------------
A|-----------------------------7--7--7--7--------------------------------------------------------------------------------
E|--2--2--2--2--2--2--2--2--2--------------7--7--7--7--5--5--5--5--5--5--5--5--5--5--5--5--5--5--5--5--2--2--2--2--2--2--

G|-----------------------------------
D|--------------4--------4-----4-----
A|-----------------------------------
E|--2--2--2--2-----2--2-----2-----2--

verse 2
G|-----------------------------------------------------------------------------------------------------------------
D|--9--7--6--4-----------9--------------9--9--9--9--------9--------7--7--6--6---------------------------------6h7--
A|--------------9--9--9-----9--9--9--9--------------9--9-----9--9--------------7--7--7--4--7--7--7--7---4h7--------
E|-----------------------------------------------------------------------------------------------------------------

G|--------------------------------------------------------------------------------------------------------------------
D|---------------------------6h7---7h9-----------9---------------9/11-11-11-9--------------9--------------7--7--6--6--
A|--7--7--7--4--7--7--7--7--------------9--9--7-----7--9--9--9--------------------9--9--7-----7--9--9--9--------------
E|--------------------------------------------------------------------------------------------------------------------

G|--------------------------------------------------------------------------------------------------------------------
D|---------------------------------6h7---------------------------6h7---7h9-----------9--------------9--9--9--9--------
A|--7--7--7--4--7--7--7--7---4h7--------7--7--7--4--7--7--7--7--------------9--9--7--------9--9--9--------------9--9--
E|--------------------------------------------------------------------------------------------------------------------

G|--------------------------------------------------------------------------------------------------------------------
D|-----9--------------9--9--9--9---------------------------------6h7---------------------------6h7---7h9-----------9--
A|--7-----7--9--9--9--------------7--7--7--4--7--7--7--7---4h7--------7--7--7--4--7--7--7--7--------------9--9--7-----
E|--------------------------------------------------------------------------------------------------------------------

G|-----------------------------------------------------------------------------
D|--------------9--9--9--9-----------------------------9--9--7--7--6--6--4--4--
A|--7--9--9--9-----------------9-----9-----7--7-----7--------------------------
E|-----------------------------------------------------------------------------

Main chorus 
G|------------------------------------------------------------------------------------------------------------------------
D|------------------------------------------------------------------------------------------------------------------------
A|---0/4--4--4--4--4--4--4--4--4--4--4--4--4--4--4---4h2----------0/4--4--4--4--4--4--4--4--4--4--4--4-7--7--7--7---------
E|---------------------------------------------------------4h2-----------------------------------------------------2--2---

G|-----------------------------------------------------------------------------------------------------------------------
D|-----------------------------------------------------------------------------------------------------------------------
A|---------------------------------------------------------------------------------------------0/4--4--4--4--4--4--4--4--
E|--2--2--2--2--2--2--2--2--2--2--2--2--2--2--2--2--2--2--2--2--2--2--2--2--2--2--2--2--2--2-----------------------------

G|-----------------------------------------------------------------------------------------------------------------------
D|-----------------------------------------------------------------------------------------------------------------------
A|--4--4--4--4--4--4--4---4h2---------0/4--4--4--4--4--4--4--4--4--4--4--4--7--7--7--7-----------------------------------
E|------------------------------4h2-----------------------------------------------------2--2--2--2--2--2--2--2--2--2--2--

G|-----------------------------------------------------------------------------------------------------------------------
D|-----------------------------------------------------------------------------------------------------------------------
A|-----------------------------7--7--7--7--------------------------------------------------------------------------------
E|--2--2--2--2--2--2--2--2--2--------------7--7--7--7--5--5--5--5--5--5--5--5--5--5--5--5--5--5--5--5--2--2--2--2--2--2--

G|-----------------------------------
D|--------------4--------4-----4-----
A|-----------------------------------
E|--2--2--2--2-----2--2-----2-----2--
tabs and chords, guitar tabs, music transcription, music technology, deep learning, music information retrieval, transcribe into tabs & chords, chordify, music renditions, songsterr, reverbnation, tabulature, bollywood chords, ultimate guitar, yousician, guitar lessons, acoustic guitar, electric guitar, guitar tuner, 911 tabs