Waking The Sun - Kevin Gilbert - Guitar Tabs

"Waking The Sun" 
Kevin Gilbert
Bolts

BPM : 185

Tuning: Celtic/DADGAD
Approximation of chorus and bridge strumming pattern

Intro:
             
D|-----------0-----------------------0-----------------------0-----------------------0--------------
A|--------------------------------------------------------------------------------------------------
G|-----------------7-----------------------7-----------------------7-----------------------7--------
D|--------7-----------7-----------7-----------7-----------6-----------6-----------6-----------6-----
A|--------------------------5-----------------------------------------------5-----------------------
D|--0-----------------------------------------------0-----------------------------------------------

D|-----------0-----------------------0--------------------------------------------------------------
A|-----------------------------------------------------------------0--------------------------------
G|-----------------7-----------------------7-----------------0--------------------------------------
D|--------5-----------5-----------5-----------5-----------4-----------4-----------------------------
A|--------------------------5-----------------------------------------------5-----------------------
D|--0-----------------------------------------------0-----------------------------------------------


Verse 1:

                            Jenny    we    both     know        the   truth,               it's           
D|-----------------0-----------------------0-----------------------0-----------------------0----- 
A|-----------0-----------------------0-----------------------0-----------------------0-----------
G|--7-----------------------7-----------------------6-----------------------6--------------------
D|--------4-----------4-----------4-----------4-----------4-----------4-----------4-----------4--
A|--------------5-----------------------5-----------------------5-----------------------5--------
D|--0-----------------------0-----------------------0-----------------------0--------------------

    ne-        -ver   changed,                it's  just        been        tucked   a-   -way.
D|-----------------0-----------------------0-----------------------5-----------------------5----- 
A|-----------0-----------------------0--------------8-----------------------8--------------------
G|--5-----------------------5--------------------------------5-----------------------5-----------
D|--------4-----------4-----------4-----------4-----------8-----------8-----------8-----------8--
A|--------------5-----------------------5-----------------------5-----------------------5--------
D|--0-----------------------0-----------------------5-----------------------5--------------------

                            I  have  tried    to    shine             for you,                 but
D|-----------------0-----------------------0-----------------------0-----------------------0----- 
A|-----------0-----------------------0-----------------------0-----------------------0-----------
G|--7-----------------------7-----------------------6-----------------------6--------------------
D|--------4-----------4-----------4-----------4-----------4-----------4-----------4-----------4--
A|--------------5-----------------------5-----------------------5-----------------------5--------
D|--0-----------------------0-----------------------0-----------------------0--------------------

    in          your  heart                   it's ano-        -ther        rai-  ny          day.
D|-----------------0-----------------------0-----------------------5-----------------------5----- 
A|-----------0-----------------------0--------------8-----------------------8--------------------
G|--5-----------------------5--------------------------------5-----------------------5-----------
D|--------4-----------4-----------4-----------4-----------8-----------8-----------8-----------8--
A|--------------5-----------------------5-----------------------5-----------------------5--------
D|--0-----------------------0-----------------------5-----------------------5--------------------



Pre-Chorus 1:

                      and I know that this is       hur-       -ting  you,                    these
D|-----------------0-----------------------0-----------------------0--------------------------------
A|-----------------------------------------------------------0-----------------------3--------------
G|-----------3-----------------------3--------------2-----------------------2--------------2--------
D|--------2-----------2-----------2-----------2-----------0-----------0-----------0-----------0-----
A|--3-----------3-----------3-----------3-----------------------------------------------------------
D|--------------------------------------------------3-----------3-----------3-----------3-----------

    choi-      -ces         that        you've   made,
D|-----------------0-----------------------0--------------------------------------------------------
A|-----------------------------------------------------------3-----------------------3--------------
G|-----------3-----------------------3--------------2--------------2--------2--------------2--------
D|--------2-----------2-----------2-----------2-----------0-----------0-----------0-----------0-----
A|--3-----------3-----------3-----------3-----------------------------------------------------------
D|--------------------------------------------------3-----------3-----------3-----------3-----------

                      but I cannot   make  them     go          a    -way                     or
D|-----------------------------------------------------------------0--------------------------------
A|-----------2-----------------------2--------------3-----------------------3--------------3--------
G|--1--------------1--------1--------------1-----------------2-----------------------2--------------
D|--------0-----------0-----------0-----------0-----------2-----------2-----------2-----------2-----
A|--------------2-----------------------2-----------0-----------0-----------0-----------0-----------
D|--2-----------------------2-----------------------------------------------------------------------

    make        you         un-         a-         -fraid.                                       So
D|--------------------------------------------------2-----------------------------------------------
A|-----------2-----------------------2--------------4-----------------------------------------------
G|--1--------------1--------1--------------1--------2-----------------------------------------------
D|--------0-----------0-----------0-----------0-----2-----------------------------------------------
A|--------------2-----------------------2-----------0-----------------------------------------------
D|--2-----------------------2-----------------------------------------------------------------------

Chorus 1:

    when the storm is    finally     over           I  will  always      be    here  waiting   
D|--------4--------4--4--4--------4--------4--4--4--------4--------4--4--4--------4--------4--4--4--
A|--------5--------5--5--5--------5--------5--5--5--------4--------4--4--4--------4--------4--4--4--
G|--------2--------2--2--2--------2--------2--2--2--------2--------2--2--2--------2--------2--2--2--
D|--------0--------0--0--0--------0--------0--0--0--------0--------0--0--0--------0--------0--0--0--
A|--0-----0--------0--0--0--0-----0--------0--0--0--0-----0--------0--0--0--0-----0--------0--0--0--
D|--0--------------0--0--0--0--------------0--0--0--0--------------0--0--0--0--------------0--0--0--

    wa   -king  the   sun               for      you.                                            And
D|--------0--------0--0--0--------0--0--------0-----------0--------0--------0--------0-----0--------
A|--------0--------0--0--0--------0--0--------0-----------0--------0--------0--------0-----0--------
G|--------0--------0--0--0--------0--0--------0-----------2--------2--------2--------2-----2--------
D|--------0--------0--0--0--------0--0--------0-----------0--------0--------0--------0-----0--------
A|--3--------------3--3--3--5-----------3--2--------0-----0--------0--0-----0--------0--------3-----
D|--3--------------3--3--3--5-----------3--2--------0-----------------0--------------0--------3-----

    when the clouds have blown a    -way   and      you can  look  at    me    a    -gain  I'll be
D|--------4--------4--4--4--------4--------4--4--4--------4--------4--4--4--------4--------4--4--4--
A|--------5--------5--5--5--------5--------5--5--5--------4--------4--4--4--------4--------4--4--4--
G|--------2--------2--2--2--------2--------2--2--2--------2--------2--2--2--------2--------2--2--2--
D|--------0--------0--0--0--------0--------0--0--0--------0--------0--0--0--------0--------0--0--0--
A|--0-----0--------0--0--0--0-----0--------0--0--0--0-----0--------0--0--0--0-----0--------0--0--0--
D|--0--------------0--0--0--0--------------0--0--0--0--------------0--0--0--0--------------0--0--0--

    wa   -king  the   sun               for      you
D|--------0--------0--0--0--------0--0--------0-----------0--------0--------0--------0-----0--0-----
A|--------0--------0--0--0--------0--0--------0-----------0--------0--------0--------0-----0--0-----
G|--------0--------0--0--0--------0--0--------0-----------2--------2--------2--------2-----2--2-----
D|--------0--------0--0--0--------0--0--------0-----------0--------0--------0--------0-----0--0-----
A|--3--------------3--3--3--5-----------3--2--------0-----0--------0--0-----0--------0-----0--0-----
D|--3--------------3--3--3--5-----------3--2--------0-----------------0--------------0-----0--0-----

Verse 2:

                            What are you   a       -fraid       to    lose,               that           
D|-----------------0-----------------------0-----------------------0-----------------------0----- 
A|-----------0-----------------------0-----------------------0-----------------------0-----------
G|--7-----------------------7-----------------------6-----------------------6--------------------
D|--------4-----------4-----------4-----------4-----------4-----------4-----------4-----------4--
A|--------------5-----------------------5-----------------------5-----------------------5--------
D|--0-----------------------0-----------------------0-----------------------0--------------------

    you         would choose                  to pretend        I           do       not      love
D|-----------------0-----------------------0-----------------------5-----------------------5----- 
A|-----------0-----------------------0--------------8-----------------------8--------------------
G|--5-----------------------5--------------------------------5-----------------------5-----------
D|--------4-----------4-----------4-----------4-----------8-----------8-----------8-----------8--
A|--------------5-----------------------5-----------------------5-----------------------5--------
D|--0-----------------------0-----------------------5-----------------------5--------------------

                            What is  it    that     you         believe                     that's
D|-----------------0-----------------------0-----------------------0-----------------------0----- 
A|-----------0-----------------------0-----------------------0-----------------------0-----------
G|--7-----------------------7-----------------------6-----------------------6--------------------
D|--------4-----------4-----------4-----------4-----------4-----------4-----------4-----------4--
A|--------------5-----------------------5-----------------------5-----------------------5--------
D|--0-----------------------0-----------------------0-----------------------0--------------------

    let        -ting  you                     pro  -fess        that  you   don't    be      -lieve
D|-----------------0-----------------------0-----------------------5-----------------------5----- 
A|-----------0-----------------------0--------------8-----------------------8--------------------
G|--5-----------------------5--------------------------------5-----------------------5-----------
D|--------4-----------4-----------4-----------4-----------8-----------8-----------8-----------8--
A|--------------5-----------------------5-----------------------5-----------------------5--------
D|--0-----------------------0-----------------------5-----------------------5--------------------


Pre-Chorus 2:

                    and you turn your world   a    -way         from  me,                  and  it's
D|-----------------0-----------------------0-----------------------0--------------------------------
A|-----------------------------------------------------------0-----------------------3--------------
G|-----------3-----------------------3--------------2-----------------------2--------------2--------
D|--------2-----------2-----------2-----------2-----------0-----------0-----------0-----------0-----
A|--3-----------3-----------3-----------3-----------------------------------------------------------
D|--------------------------------------------------3-----------3-----------3-----------3-----------

    night       out        -side        your     door,
D|-----------------0-----------------------0--------------------------------------------------------
A|-----------------------------------------------------------3-----------------------3--------------
G|-----------3-----------------------3--------------2--------------2--------2--------------2--------
D|--------2-----------2-----------2-----------2-----------0-----------0-----------0-----------0-----
A|--3-----------3-----------3-----------3-----------------------------------------------------------
D|--------------------------------------------------3-----------3-----------3-----------3-----------

                   so when you finally turn a      -round       a    -gain,                   I
D|-----------------------------------------------------------------0--------------------------------
A|-----------2-----------------------2--------------3-----------------------3--------------3--------
G|--1--------------1--------1--------------1-----------------2-----------------------2--------------
D|--------0-----------0-----------0-----------0-----------2-----------2-----------2-----------2-----
A|--------------2-----------------------2-----------0-----------0-----------0-----------0-----------
D|--2-----------------------2-----------------------------------------------------------------------

    love        you         e          -ven         more.                                        And
D|--------------------------------------------------2-----------------------------------------------
A|-----------2-----------------------2--------------4-----------------------------------------------
G|--1--------------1--------1--------------1--------2-----------------------------------------------
D|--------0-----------0-----------0-----------0-----2-----------------------------------------------
A|--------------2-----------------------2-----------0-----------------------------------------------
D|--2-----------------------2-----------------------------------------------------------------------

Chorus 2:

   when you're darkest   night is    o    -ver,     I  will  al   -ways  be    here  wait -ing
D|--------4--------4--4-----------4--------4--4--4--------4--------4--4-----------4--------4--4--4--
A|--------5--------5--5-----------5--------5--5--5--------4--------4--4-----------4--------4--4--4--
G|--------2--------2--2-----------2--------2--2--2--------2--------2--2-----------2--------2--2--2--
D|--------0--------0--0-----------0--------0--0--0--------0--------0--0-----------0--------0--0--0--
A|--0-----0--------0--0-----0-----0--------0--0--0--0-----0--------0--0-----0-----0--------0--0--0--
D|--0--------------0--0-----0--------------0--0--0--0--------------0--0-----0--------------0--0--0--

    Wa   -king  the   sun               for      you.
D|--------0--------0--0--0--------0--0--------0-----------0--------0--------0--------0-----0--------
A|--------0--------0--0--0--------0--0--------0-----------0--------0--------0--------0-----0--------
G|--------0--------0--0--0--------0--0--------0-----------2--------2--------2--------2-----2--------
D|--------0--------0--0--0--------0--0--------0-----------0--------0--------0--------0-----0--------
A|--3--------------3--3--3--5-----------3--2--------0-----0--------0--0-----0--------0-------3b5----
D|--3--------------3--3--3--5-----------3--2--------0-----------------0--------------0-------3b5-----
 
    Someday  you'll re  -mem  -ber   I     said  today is    not   for  -ever  I'll  be
D|--------4--------4--4--4--------4--------4--4--4--------4--------4--4--4--------4--------4--4--4-
A|--------5--------5--5--5--------5--------5--5--5--------4--------4--4--4--------4--------4--4--4--
G|--------2--------2--2--2--------2--------2--2--2--------2--------2--2--2--------2--------2--2--2--
D|--------0--------0--0--0--------0--------0--0--0--------0--------0--0--0--------0--------0--0--0--
A|--0-----0--------0--0--0--0-----0--------0--0--0--0-----0--------0--0--0--0-----0--------0--0--0--
D|--0--------------0--0--0--0--------------0--0--0--0--------------0--0--0--0--------------0--0--0--
 
    Wa   -king  the   sun               for      you.
D|--------0--------0--0--0--------0--0--------0-----x-----0--------0--x-----0--------0-----0--0-----
A|--------0--------0--0--0--------0--0--------0-----x-----0--------0--x-----0--------0-----0--0-----
G|--------0--------0--0--0--------0--0--------0-----x-----2--------2--x-----2--------2-----2--2-----
D|--------0--------0--0--0--------0--0--------0-----x-----0--------0--x-----0--------0-----0--0-----
A|--3--------------3--3--3--5-----------3--2--------0-----0--------0--0-----0--------0-----0--0-----
D|--3--------------3--3--3--5-----------3--2--------0-----------------0--------------0-----0--0-----

Bridge:

                      Shine       the         light                   on          your        soul,
D|--7-----------7-----------7-----------7-----------5-----------5-----------5-----------5-----------
A|--5-----------5-----------5-----------5-----------5-----------5-----------5-----------5-----------
G|--5-----5-----5-----5-----5-----5-----5-----5-----3-----3-----3-----3-----3-----3-----3-----3-----
D|--------------------------------------------------------------------------------------------------
A|--------------------------------------------------------------------------------------------------
D|--------------------------------------------------------------------------------------------------

                      can         you         find        things      that        are         whole
D|--7-----------7-----------7-----------7-----------9-----------9-----------8-----------8-----------
A|--5-----------5-----------5-----------5-----------10----------10----------10----------10----------
G|--5-----5-----5-----5-----5-----5-----5-----5-----7-----7-----7-----7-----6-----6-----6-----6-----
D|--------------------------------------------------------------------------------------------------
A|--------------------------------------------------------------------------------------------------
D|--------------------------------------------------------------------------------------------------

                      All         the         light             you   will        re         -ceive
D|--7-----------7-----------7-----------7-----------5-----------5-----------5-----------5-----------
A|--5-----------5-----------5-----------5-----------5-----------5-----------5-----------5-----------
G|--5-----5-----5-----5-----5-----5-----5-----5-----3-----3-----3-----3-----3-----3-----3-----3-----
D|--------------------------------------------------------------------------------------------------
A|--------------------------------------------------------------------------------------------------
D|--------------------------------------------------------------------------------------------------

                      When        you         live        by          what        you   be   -lieve
D|--7-----------7-----------7-----------7-----------9-----------9-----------8-----------8-----------
A|--5-----------5-----------5-----------5-----------10----------10----------10----------10----------
G|--5-----5-----5-----5-----5-----5-----5-----5-----7-----7-----7-----7-----6-----6-----6-----6-----
D|--------------------------------------------------------------------------------------------------
A|--------------------------------------------------------------------------------------------------
D|--------------------------------------------------------------------------------------------------


D|--8-----8-----8-----8-----8-----8-----8-----8-----8-----8-----8-----8-----
A|--10----10----10----10----10----10----10----10----10----10----10----10----
G|--6-----6-----6-----6-----6-----6-----6-----6-----6-----6-----6-----6-----
D|--8-----8-----8-----8-----8-----8-----8-----8-----8-----8-----8-----8-----
A|--6-----6-----6-----6-----6-----6-----6-----6-----6-----6-----6-----6-----
D|--------------------------------------------------------------------------


Chorus 3:

    when the storm is    finally     over           I  will  always      be    here  waiting   
D|--------4--------4--4--4--------4--------4--4--4--------4--------4--4--4--------4--------4--4--4--
A|--------5--------5--5--5--------5--------5--5--5--------4--------4--4--4--------4--------4--4--4--
G|--------2--------2--2--2--------2--------2--2--2--------2--------2--2--2--------2--------2--2--2--
D|--------0--------0--0--0--------0--------0--0--0--------0--------0--0--0--------0--------0--0--0--
A|--0-----0--------0--0--0--0-----0--------0--0--0--0-----0--------0--0--0--0-----0--------0--0--0--
D|--0--------------0--0--0--0--------------0--0--0--0--------------0--0--0--0--------------0--0--0--

    wa   -king  the   sun               for      you.                                            And
D|--------0--------0--0--0--------0--0--------0-----------0--------0--------0--------0-----0--------
A|--------0--------0--0--0--------0--0--------0-----------0--------0--------0--------0-----0--------
G|--------0--------0--0--0--------0--0--------0-----------2--------2--------2--------2-----2--------
D|--------0--------0--0--0--------0--0--------0-----------0--------0--------0--------0-----0--------
A|--3--------------3--3--3--5-----------3--2--------0-----0--------0--0-----0--------0--------3-----
D|--3--------------3--3--3--5-----------3--2--------0-----------------0--------------0--------3-----

    when the clouds have blown a    -way   and      you can  look  at    me    a    -gain  I'll be
D|--------4--------4--4-----------4--------4--4--4--------4--------4--4-----------4--------4--4--4--
A|--------5--------5--5-----------5--------5--5--5--------4--------4--4-----------4--------4--4--4--
G|--------2--------2--2-----------2--------2--2--2--------2--------2--2-----------2--------2--2--2--
D|--------0--------0--0-----------0--------0--0--0--------0--------0--0-----------0--------0--0--0--
A|--0-----0--------0--0-----0-----0--------0--0--0--0-----0--------0--0-----0-----0--------0--0--0--
D|--0--------------0--0-----0--------------0--0--0--0--------------0--0-----0--------------0--0--0--

    wa   -king  the   sun               for      you
D|--------0--------0--0--0--------0--0--------0-----------0--------0--------0--------0-----0--0-----
A|--------0--------0--0--0--------0--0--------0-----------0--------0--------0--------0-----0--0-----
G|--------0--------0--0--0--------0--0--------0-----------2--------2--------2--------2-----2--2-----
D|--------0--------0--0--0--------0--0--------0-----------0--------0--------0--------0-----0--0-----
A|--3--------------3--3--3--5-----------3--2--------0-----0--------0--0-----0--------0-----0--0-----
D|--3--------------3--3--3--5-----------3--2--------0-----------------0--------------0-----0--0-----
 
    wa   -king  the   sun  (wa   -king  the   sun)                                      for you.
D|--0-----0--0-----0--0-----0--0-----0--0--0-----0--0-----0--0-----0--0--------0--0-----0-----------
A|--0-----0--0-----0--0-----0--0-----0--0--0-----0--0-----0--0-----0--0--------0--0-----0-----------
G|--0-----0--0-----0--0-----0--0-----0--0--0-----0--4-----4--5-----5--7--------7--7-----7-----------
D|--0-----0--0-----0--0-----0--0-----0--0--0-----0--0-----0--0-----0--0--------0--0-----0-----------
A|--3-----3--3-----3--3-----3--3-----3--3--3-----3--5-----5--5-----5--5--------5--5-----5-----------
D|--3-----3--3-----3--3-----3--3-----3--3--3-----3--5-----5--5-----5--5--------5--5-----5-----------

Intro 2:
             
D|-----------0-----------------------0-----------------------0-----------------------0--------------
A|--------------------------------------------------------------------------------------------------
G|-----------------7-----------------------7-----------------------7-----------------------7--------
D|--------7-----------7-----------7-----------7-----------6-----------6-----------6-----------6-----
A|--------------------------5-----------------------------------------------5-----------------------
D|--0-----------------------------------------------0-----------------------------------------------

D|-----------0-----------------------0--------------------------------------------------------------
A|-----------------------------------------------------------------0--------------------------------
G|-----------------7-----------------------7-----------------0--------------------------------------
D|--------5-----------5-----------5-----------5-----------4-----------4-----------------------------
A|--------------------------5-----------------------------------------------5-----------------------
D|--0-----------------------------------------------0-----------------------------------------------


Verse 3:

                            Jenny    don't give     up       just     yet              'cause there's
D|-----------------0-----------------------0-----------------------0-----------------------0----- 
A|-----------0-----------------------0-----------------------0-----------------------0-----------
G|--7-----------------------7-----------------------6-----------------------6--------------------
D|--------4-----------4-----------4-----------4-----------4-----------4-----------4-----------4--
A|--------------5-----------------------5-----------------------5-----------------------5--------
D|--0-----------------------0-----------------------0-----------------------0--------------------

    no-        -thing past                    that  can        -not         be       un      -done
D|-----------------0-----------------------0-----------------------5-----------------------5----- 
A|-----------0-----------------------0--------------8-----------------------8--------------------
G|--5-----------------------5--------------------------------5-----------------------5-----------
D|--------4-----------4-----------4-----------4-----------8-----------8-----------8-----------8--
A|--------------5-----------------------5-----------------------5-----------------------5--------
D|--0-----------------------0-----------------------5-----------------------5--------------------

                            Open     up    your     eyes        and   look,                and you
D|-----------------0-----------------------0-----------------------0-----------------------0----- 
A|-----------0-----------------------0-----------------------0-----------------------0-----------
G|--7-----------------------7-----------------------6-----------------------6--------------------
D|--------4-----------4-----------4-----------4-----------4-----------4-----------4-----------4--
A|--------------5-----------------------5-----------------------5-----------------------5--------
D|--0-----------------------0-----------------------0-----------------------0--------------------

    just        might       see               the   sun
D|-----------------0-----------------------0--------5-- 
A|-----------0-----------------------0--------------8--
G|--5-----------------------5-----------------------5--
D|--------4-----------4-----------4-----------4-----8--
A|--------------5-----------------------5-----------5--
D|--0-----------------------0-----------------------5--

About Bolts (album) : Kevin Gilbert was released posthumously in 2009 . It is a collection of unreleased material from Gilbert's career . The album was It had a contribution from notable artists like Kevin Gilbert. It had an affiliation to bands - Bolts. Its music is influenced by genres - electronic, pop, rock.

tabs and chords, guitar tabs, music transcription, music technology, deep learning, music information retrieval, transcribe into tabs & chords, chordify, music renditions, songsterr, reverbnation, tabulature, bollywood chords, ultimate guitar, yousician, guitar lessons, acoustic guitar, electric guitar, guitar tuner, 911 tabs