Sun Goddess - Guitar Tabs

(/) Slide Up  (\) Slide Down  (h) Hammer On  (p) Pull Off  (b) Bend (r) Release (v) Vibrato (x) Muted

Tabs for Song : 
BPM : 200

:53 
E|--------------------------------------------------------------------------------------------------------
B|--------------------------------------------------------------------------------------------------------
G|--------------------------------------------------------------------------------------------------------
D|--6--------6-----------7---9\11----9------9\11-9--10-------6--7--6--7--6--7---6h-7p6--------------------
A|-----7---------7\9--------------------------------------------------------------------9---9h11p9--7-----
E|--------------------------------------------------------------------------------------------------------
                                                        1:19  
E|---------------------------------------------------------------------------------------7\9--7------7\9--7--8--
B|--------------------------------------------------------------------9-----9--------10-------------------------
G|-----------------------------------------------6--7--4-----------------9-----9--11----------------------------
D|--------7---9\11-7------9h11p9------7h9-----------------------------------------------------------------------
A|-----9--------------------------------------------------------------------------------------------------------
E|--------------------------------------------------------------------------------------------------------------

E|-----------------------------------------------------9--------9--------\
B|--9--10-9--10-9--10--9h10p9-----------------------10----10-------10\12-
G|-----------------------------11-11h13p11-9-----11----------------------
D|-----------------------------------------------------------------------
A|-----------------------------------------------------------------------
E|-----------------------------------------------------------------------

E|--
B|--
G|--
D|--
A|--
E|--

Song lyrics here 
E|--
B|--
G|--
D|--
A|--
E|--

Use manual mode to free up cursor. Paste any tab in acousterr tab maker and we'll play it !!!

About Sun Goddess (song) : "Sun Goddess" is a single by Ramsey Lewis featuring the band Earth, Wind & Fire . The song rose to No. 20 on the Billboard Hot Soul Songs chart Ramsey Lewis's 1974 album Sun Goddess . Maurice White produced by Maurice White and composed by Jon Lind . The song "Sun Goddess" has been covered by artists such as: It was released in 1975. It was released as part of album Sun Goddess. The genre is r&b , smooth jazz. The track was release in 1975. The track has an affiliation to the band(s) - Earth.

About Sun Goddess (album) : Sun Goddess is a jazz album by Ramsey Lewis released on Columbia Records in 1974 . The album reached No. 1 on the Billboard Top Soul Albums chart . Sun Goddess has also been certified Gold by the RIAA . Ramsey Lewis wanted to head in a new musical direction in the 1970s . He reunited with Maurice White, who was with his own band, Earth, Wind & Fire . Members of EW&F including White played on the album sessions . The album became a crossover hit, charting at No. 1 on the Billboard R&B and jazz album charts . The tracks, "Hot Dawgit" and "Sun Goddess", charted on the R-B, pop and disco singles It had an affiliation to bands - Sun Goddess. Its music is influenced by genres - jazz fusion , r&b.

tabs and chords, guitar tabs, music transcription, music technology, deep learning, music information retrieval, transcribe into tabs & chords, chordify, music renditions, songsterr, reverbnation, tabulature, bollywood chords, ultimate guitar, yousician, guitar lessons, acoustic guitar, electric guitar, guitar tuner, 911 tabs