Guitar Tabs for Waiting Room

Waiting Room - Rex Orange County

E|--------------------------------------------------------------------------------------------------
B|--------4-----------4-----------4-----------4-----------4-----------4-----------4-----4-----4-----
G|--------3-----------3-----------3-----------3-----------3-----------3-----------3-----3-----3-----
D|-----4-----------4-----------4-----------4-----------4-----------4-----------4--------------------
A|--2--------2--1--------1--2--------2--1--------1--2--------2--1--------1--2--------2-----2-----2--
E|--------------------------------------------------------------------------------------------------
   
                                I'm just the boy
E|--------------------------------------------------------------------------------------------------
B|--------4-----------4-----------4-----------4-----------4-----------4--------------5--------5-----
G|--------3-----------3-----------3-----------3-----------3-----------3-----------6--------6--------
D|-----4-----------4-----------4-----------4-----------4-----------4-----------6--------------------
A|--2--------2--1--------1--2--------2--1--------1--2--------2--1--------1--4-----------------------
E|--------------------------------------------------------------------------------------------------
             Our   family   reunion   I'd rather  be anywhere   but       here          It's like a
             And my lover, my best friend When I heard that you don't know why you're here
E|--------------------------------------------------------------------------------------------------
B|--------5-----------5-----------5-----------5-----------5-----5--5-----------------11-------------
G|--------6-----------6-----------6-----------6-----------6-----6--6--------------9-----------------
D|-----6-----------6-----------6-----------6-----------6-----------------------11-------------------
A|--4--------4--3--------3--4--------4--3--------3--4--------4-----4--------9-----------------------
E|--------------------------------------------------------------------------------------------------
    pain   you  shouldn't ignore  But my uncle's  here   to  open the       door, and I don't like 
         I fell face down                       And  became  one   with the ground
E|--------------------------------------------------------------------------------------------------
B|--------4-----------4-----------4-----------4-----------4-----------4--------------5--------5-----
G|--------3-----------3-----------3-----------3-----------3-----------3-----------6--------6--------
D|-----4-----------4-----------4-----------4-----------4-----------4-----------6--------------------
A|--2--------2--1--------1--2--------2--1--------1--2--------2--1--------1--4-----------------------
E|--------------------------------------------------------------------------------------------------
    him      This family   reunion           I felt so uncomfortable, I  left
             And my lover's best friend          No, he doesn't know what to suggest
E|--------------------------------------------------------------------------------------------------
B|--------5-----------5-----------5-----------5-----------5-----5-----5--------------11-------------
G|--------6-----------6-----------6-----------6-----------6-----6-----6-----------9-----------------
D|-----6-----------6-----------6-----------6-----------6-----------------------11-------------------
A|--4--------4--3--------3--4--------4--3--------3--4--------4-----4--------9-----------------------
E|--------------------------------------------------------------------------------------------------
       They all decided to stay            So  it's  just   me   and   my   mistakes
       He does everything for love        But when his "everything" just isn't enough
E|--------------------------------------------------------4-----------4-----4-----------------------
B|--------9-----------9-----------8-----------8-----------4-----------4--------5-----------5--------
G|--------8-----------8-----------6-----------6--------4-----4-----4-----4--------4-----------4-----
D|-----9-----9-----9-----9-----8-----8-----8-----8--6-----------6--------------------6--------------
A|--7-----------7-----------6-----------6-----------------------------------------------------------
E|--------------------------------------------------------------------------------------------------
        And I'd     like to know           that you  smile   when   you're  alone    And when you
           He'd     like to know           that you  smile   when   you're  alone    And when you
E|-----------------------------------------------------------------------------2------------------||
B|-----------5-----------------------------------------5-----------------------2-----------------O||
G|--------6-----------------------------------------6--------6-----------------3------------------||
D|-----6-----------------------------------------6--------------6-----------4---------------------||
A|--4-----------------------------------------4--------------------------4-----------------------O||
E|--------------------------------------------------------------------2---------------------------||
  need time to yourself             Remember me, I won't be anyone else    I'm just the boy you love                                 
E|--------------------------------------------------------------------------------------------------
B|--------4-----------4-----------4-----------4-----------4-----------4-----------4-----------4-----
G|--------3-----------3-----------3-----------3-----------3-----------3-----------3-----------3-----
D|-----4-----------4-----------4-----------4-----------4-----------4-----------4-----------4--------
A|--2--------2--1--------1--2--------2--1--------1--2--------2--1--------1--2--------2--1--------1--
E|--------------------------------------------------------------------------------------------------
                                    The boy,                              you love,         
E|--------------------------------------------------------------------------7-----------------------
B|--------4-----------4-----------4-----------4-----------4-----4-----------7--7--------------7-----
G|--------3-----------3-----------3-----------3-----------3-----3-----------8-----8-----------8-----
D|-----4-----------4-----------4-----------4-----------4-----------4--------9--------9--------9-----
A|--2--------2--1--------1--2--------2--1--------1--2--------2--------2-----9--------------9--------
E|--------------------------------------------------------------------------7-----------------------
             uhhh
E|-----7--------------------------------------------------------------------------------------------
B|--9--------9-----------------------9--------------------11----------11----------11----------11----
G|-----------------8--------------7--------7--------------10----------10----------9-----------9-----
D|--------------------9--------9--------------9--------11----11----11----11----11----11----11----11-
A|-----------------------7--8--------------------8--9-----------9-----------10----------10----------
E|--------------------------------------------------------------------------------------------------
    And if it looks like you don't love me then     That's alright and I would let you be content
E|--------------------------------------------------------7-----7-----------------------------------
B|--------12-------12-------------12-------12-------------9-----9-----------9-----------------------
G|--------13----------13----------13----------13-------8-----8--8-----------8-----------------------
D|-----13----13----------13----13----13----------13-------------------------9-----------------------
A|--11----------11----------10----------10----------9-----------9-----8-----7-----------------------
E|--------------------------------------------------------------------------------------------------
         I'm still your friend        No revenge    and     no regrets                                                                        2:39
E|--------------------------------------------------------------------------------------------------
B|--------4-----------4-----------4-----------4-----------4-----------4-----------4-----------4-----
G|--------3-----------3-----------3-----------3-----------3-----------3-----------3-----------3-----
D|-----4-----------4-----------4-----------4-----------4-----------4-----------4-----------4--------
A|--2--------2--1--------1--2--------2--1--------1--2--------2--1--------1--2--------2--1--------1--
E|--------------------------------------------------------------------------------------------------

E|--------------------------------------------------------------------------------------------------
B|--------4-----------4-----------4-----------4-----4-----4--------4--------7--7--------------------
G|--------3-----------3-----------3-----------3-----3-----3--------3--------8-----8-----------------
D|-----4-----------4-----------4-----------4--------4-----4--------4--------9--------9--------------
A|--2--------2--1--------1--2--------2--1--------1--2-----2--------2--------9-----------------------
E|--------------------------------------------------------------------------------------------------
    No regrets,            no regrets               No regrets                                                                 2:56
E|-----7--------------------------------------------------------------------------------------------
B|--9--------9-----------------------9--------------------11----------11----------11----------11----
G|-----------------8--------------7--------7--------------10----------10----------9-----------9-----
D|--------------------9--------9--------------9--------11----11----11----11----11----11----11----11-
A|-----------------------7--8--------------------8--9-----------9-----------10----------10----------
E|--------------------------------------------------------------------------------------------------
    And if it looks like God might judge me     Then     I don't even wanna   stay   another 
E|--------------------------------------------------------7--------7--------------------------------
B|--------12-------12-------------12-------12-------------9-----------9-----------12-------12-------
G|--------13----------13----------13----------13-------8-----8-----------8--------13----------13----
D|-----13----13----------13----13----13----------13----------------------------13----13----------13-
A|--11----------11----------10----------10----------9-----------9-----------10----------10----------
E|--------------------------------------------------------------------------------------------------
   day      If he's the one,           then who am I?     He calls the shots   And he always decides
E|--------------------------------7-----7-----------------------------------7-----------------------
B|--------12----------12----------9-----9-----------9-----------------------8-----------------------
G|--------13----------13-------8-----8--8-----------8-----------------------9-----------------------
D|-----13----13----13----13-------------------------9-----------------------9-----------------------
A|--11----------10----------9-----------9-----8-----7-----------------------7------------------7\2--
E|--------------------------------------------------------------------------------------------------
              Then what's the point in living        life?    Living life,    when it's all for him

E|--------------------------------------------------------------------------------------------------
B|--------4-----------4-----------4-----------4-----------4-----------4-----------4-----------4-----
G|--------3-----------3-----------3-----------3-----------3-----------3-----------3-----------3-----
D|-----4-----------4-----------4-----------4-----------4-----------4-----------4-----------4--------
A|--2--------2--1--------1--2--------2--1--------1--2--------2--1--------1--2--------2--3--------3--
E|--------------------------------------------------------------------------------------------------
                                  All for him, all,            all for him,            all for him
E|-----------------------------------------------------------------6-----------------------2--------
B|--------5-----------5-----------5-----5--------------------------5-----------5-----------4--------
G|--------6-----------6-----------6-----6--------------------------6-----------------------3--------
D|-----6-----------6-----------6-----6-----6-----------------------4-----------------------4--------
A|--4--------4--3--------3--4--------------------------------------------------------------2--------
E|---------------------------------------------2/4-----2--------------------------------------------




                            






tabs and chords, guitar tabs, music transcription, music technology, deep learning, music information retrieval, transcribe into tabs & chords, chordify, music renditions, songsterr, reverbnation, tabulature, bollywood chords, ultimate guitar, yousician, guitar lessons, acoustic guitar, electric guitar, guitar tuner, 911 tabs