Bass Tabs for Vocal Coach Bass

(/) Slide Up  (\) Slide Down  (h) Hammer On  (p) Pull Off  (b) Bend (r) Release (v) Vibrato (x) Muted

Tabs for Song : 

INTRO

G|--------------------------------------------------------------------------------------------------
D|--------------------------------------------------------------------------12-12-12-12-12-12-12-12-
A|--5--5--5--5--5--5--5--5--------------------------5--5--5--5--5--5--5--5--------------------------
E|--------------------------3--3--3--3--3--3--3--3--------------------------------------------------

VERSE

G|-----------------------------------------------------------------------------
D|-----------------5-----4--------------------------------------------7--------
A|--5-----5--5--------------7--5-----------4--4--5--5--7--5---7/9-----------9--
E|-----------------------------------7--7--------------------------------------

G|--------------------------------------------------------------------------
D|--------------------------------------------------------------------------
A|--------5--5--------------2--2-----7-----9-----7--------------------------
E|--3--------------2--2-----------------------------10-9--7--5--5--5--5-----

G|-----------------------------------------------------------------------------
D|-----------------5-----4--------------------------------------------7--------
A|--5-----5--5--------------7--5-----------4--4--5--5--7--5---7/9-----------9--
E|-----------------------------------7--7--------------------------------------

G|--------------------------------------------------------------------------
D|--------------------------------------------------------------------------
A|--------5--5--------------2--2-----7-----9-----7--------------------------
E|--3--------------2--2-----------------------------10-9--7--5--5--5--5-----

PRECHORUS

G|--------------------------------------------------------------------------------------------------
D|--------------------------------------------------12-12-12-12-12-12-12-12-12-12-12-12-12-12-12-12-
A|--5--5--5--5--5--5--5--5--5--5--5--5--5--5--5--5--------------------------------------------------
E|--------------------------------------------------------------------------------------------------

G|--------------------------------------------------------------------------------------------------
D|-----------------------7--9--9--7--7--------------7--7--------7--7--9--9--7--7--------------------
A|-----------------7--9-----------------9--9--7--7--------7--7--------------------10-10-9--9--7--7--
E|--7--7--7--7--9-----------------------------------------------------------------------------------

G|--------------------------------------------------------------------------------------------------
D|--------------------------------------------------------------------------------------------------
A|--5--5--5--5--5--5--5--5--9--9--9--9--9--9--9--9--1--1--1--1--1--1--1--1--13-13-13-13-13-13-13-13-
E|--------------------------------------------------------------------------------------------------

G|--------------------------------------------------------------------------------------------------
D|-----------------------7--9--9--7--7--------------7--7--------7--7--9--9--7--7--------------------
A|-----------------7--9-----------------9--9--7--7--------7--7--------------------10-10-9--9--7--7--
E|--7--7--7--7--9-----------------------------------------------------------------------------------


CHORUS

G|-----------------------------------------------------------------------------
D|-----------------5-----4--------------------------------------------7--------
A|--5-----5--5--------------7--5-----------4--4--5--5--7--5---7/9-----------9--
E|-----------------------------------7--7--------------------------------------

G|-----------------------------------------------------------------------------
D|-----------------------------------------------------------------------------
A|--5--5--5--5--------------2--2--2--2--------------------------0--0--0--0--5--
E|--------------5--5--5--5--------------2--2--2--2--0--0--0--0-----------------

BRIDGE

G|-----------------------------------------------------------------------------
D|-----------------------------------------------------------------------------
A|--5--5--5--7-----7-----7-----------------4--7--5-----5-----5-----------------
E|--------------------------5-----5-----7-----------------------2-----2-----2--

G|--------------------------------------------------------------------------------------------------
D|-----------------------7--9--9--7--7--------------7--7--------7--7--9--9--7--7--------------------
A|-----------------7--9-----------------9--9--7--7--------7--7--------------------10-10-9--9--7--7--
E|--7--7--7--7--9-----------------------------------------------------------------------------------


CHORUS

G|-----------------------------------------------------------------------------
D|-----------------5-----4--------------------------------------------7--------
A|--5-----5--5--------------7--5-----------4--4--5--5--7--5---7/9-----------9--
E|-----------------------------------7--7--------------------------------------

G|--------------------------------------------------------------------------------------------------
D|--------------------------------------------------------------------------------------------------
A|--5--5--5--5--------------2--2--2--2--------------------------0--0--0--0--5--5--5--5--5--5--5--5--
E|--------------5--5--5--5--------------2--2--2--2--0--0--0--0--------------------------------------

G|-----------------------------------------------------------------------------
D|--12-12-12-12-7--7--7--7--9--9--9--9--4--4--4--4--2--2--2--2--7--7--7--7--12-
A|-----------------------------------------------------------------------------
E|-----------------------------------------------------------------------------


SOLO

G|--------------------------------------------------------------------------------
D|--12-12-12-------------------------------------2--0-----0-----0-----------------
A|-----------------------------0-----0-----2--4-----------------------------------
E|-----------0-----0-----0-----------------------------------------2-----2-----2--

G|--------------------------------------7-----------------------------------------------------------
D|-----------------------7--9--9--7--9-----9--7-----8--8--8--8--7--7--7--7--5--5--5--5--------------
A|-----------------7--9--------------------------9--------------------------------------7--7--7--7--
E|--7--7--7--7--9-----------------------------------------------------------------------------------

G|-----------------------------------------------------------------------
D|--------------------------4--4--4--4--4--4--4--4--9--9--9--7--7--7--5--
A|--5--5--5--5--5--5--5--5-----------------------------------------------
E|-----------------------------------------------------------------------

G|-----------------------------------------------------------------------------------
D|-----------------------------------------------------------12-12-12-12-12-12-12-12-
A|--------2--2--------------0--0-----5--5--5--5--5--5--5--5--------------------------
E|--2--------------0--0--------------------------------------------------------------


PRECHORUS

G|--------------------------------------------------------------------------------------------------
D|--------------------------------------------------12-12-12-12-12-12-12-12-12-12-12-12-12-12-12-12-
A|--5--5--5--5--5--5--5--5--5--5--5--5--5--5--5--5--------------------------------------------------
E|--------------------------------------------------------------------------------------------------

G|--------------------------------------------------------------------------------------------------
D|-----------------------7--9--9--7--7--------------7--7--------7--7--9--9--7--7--------------------
A|-----------------7--9-----------------9--9--7--7--------7--7--------------------10-10-9--9--7--7--
E|--7--7--7--7--9-----------------------------------------------------------------------------------


[PAUSE]

CHORUS

G|-----------------------------
D|-----------------------------
A|--2-----2-----2--------2-----
E|--------------------------2--

G|--------------------------------------------------------------------------------------------------
D|--------------------------------------------------------------------------------------------------
A|--5--5--5--5--------------2--2--2--2--------------------------0--0--0--0--5--5--5--5--5--5--5--5--
E|--------------5--5--5--5--------------2--2--2--2--0--0--0--0--------------------------------------

G|--------------------------------------------------------------------------------------------------
D|--12-12-12-12-7--7--7--7--9--9--9--9--4--4--4--4--2--2--2--2--7--7--7--7--12-12-12-12-12-12-12-12-
A|--------------------------------------------------------------------------------------------------
E|--------------------------------------------------------------------------------------------------

G|-----------------------------------------------------------------------------
D|--12-12-12-12-7--7--7--7--9--9--9--9--4--4--4--4--2--2--2--2--7--7--7--7--12-
A|-----------------------------------------------------------------------------
E|-----------------------------------------------------------------------------
tabs and chords, guitar tabs, music transcription, music technology, deep learning, music information retrieval, transcribe into tabs & chords, chordify, music renditions, songsterr, reverbnation, tabulature, bollywood chords, ultimate guitar, yousician, guitar lessons, acoustic guitar, electric guitar, guitar tuner, 911 tabs