Guitar Tabs for She Lays Down (vocal Line)

(/) Slide Up  (\) Slide Down  (h) Hammer On  (p) Pull Off  (b) Bend (r) Release (v) Vibrato (x) Muted

Tabs for Song : 

she lays down, on  a bedroom floor...
E|-----------------------------
B|--3--3--0--------------------
G|--------------------0--0-----
D|---------------0h2--------0--
A|-----------------------------
E|-----------------------------
the chemicals that made her laugh don't seem to be working anymore.
E|--------------------------------------------------
B|--3--3--3--3---3/5--0-----------------------------
G|-----------------------2--0--0--0--4--2--0--0--0--
D|--------------------------------------------------
A|--------------------------------------------------
E|--------------------------------------------------
she tries her best, but it hurts her chest...
E|-----------------------------------
B|---0h3--3--0-----------------------
G|--------------------------0--0-----
D|---------------------0h2--------0--
A|-----------------------------------
E|-----------------------------------
and eventhough her son is gone she'd like to love a child nevertheless.
E|--------------------------------------------------------
B|---0h3--3--3--3---3/5--0--------------------------------
G|---------------------------0h2--2--0--0--4--2--0--0--0--
D|--------------------------------------------------------
A|--------------------------------------------------------
E|--------------------------------------------------------
and my hair is brown, she's scared to touch...
E|-----------------------------------
B|--------3--3--0--------------------
G|---0h2--------------------0--0-----
D|-----------------------2--------0--
A|-----------------------------------
E|-----------------------------------
she just wants to feel something and i dont think that's asking for too much.
E|-----------------------------------------------------
B|--3--3--3--3--3--1--1--0-----------------------------
G|--------------------------2--0--0--0--4--2--0--0--0--
D|-----------------------------------------------------
A|-----------------------------------------------------
E|-----------------------------------------------------
abd when i go to sleep, is when she begins to weep.
E|-----------------------------------------------
B|---0h1--1--0--------------0--0--3---0h3--5-----
G|---------------0h2--------------------------0--
D|-----------------------------------------------
A|-----------------------------------------------
E|-----------------------------------------------
sh's appauled by not loving me at all
E|--------------------------------
B|--------------------------------
G|---0h2--2--4--4--5--4--2--0--0--
D|--------------------------------
A|--------------------------------
E|--------------------------------
she wears a frown and a dressing gown, when she lays down
E|--------------------------------------------
B|--1--1--1--1--0--0--------------------------
G|--------------------0--2--------------0--0--
D|---------------------------------0h2--------
A|--------------------------------------------
E|--------------------------------------------
got on a plane, gonna see my dad again...
E|--------------------------------------------
B|---0h3--3--0--------------------------------
G|-----------------------------------0--0-----
D|------------------------0h2--2--0--------0--
A|--------------------------------------------
E|--------------------------------------------
she prayed that we fell from the sky simply to immediate the pain. 
E|-----------------------------------------------------
B|---0h3--3--3--3---3/5--0-----------------------------
G|--------------------------2--0--0--0--5--4--2--0--0--
D|-----------------------------------------------------
A|-----------------------------------------------------
E|-----------------------------------------------------
over water, hmm. over terain,
E|-----------------------------------
B|--3--3--3--0-----------------------
G|--------------------------0--0-----
D|-----------------------2--------0--
A|-----------------------------------
E|-----------------------------------
the engines all go bust, we turned to dust but thats no reason to complain.
E|--------------------------------------------------------
B|---0h3--3--3--3---3/5--0--------------------------------
G|-----------------------------2--2--2--0--4--2--2-----0--
D|--------------------------0-----------------------0-----
A|--------------------------------------------------------
E|--------------------------------------------------------
and in the end she chose cocain, but it couldn't fix her brain.
E|-----------------------------------------------------
B|---0h1--1--1--1--0--------------0--0---1h3--3--5-----
G|---------------------0h2--------------------------0--
D|-----------------------------------------------------
A|-----------------------------------------------------
E|-----------------------------------------------------
she's appauled no she's not loving me at all.
E|-----------------------------------
B|-----------------------------------
G|---0h2--2--4--4--4--5--4--2--0--0--
D|-----------------------------------
A|-----------------------------------
E|-----------------------------------
she wears a frown and a dressing gown.
E|-----------------------------
B|---0h1--1--1--1--1--0--------
G|-----------------------0--2--
D|-----------------------------
A|-----------------------------
E|-----------------------------
when she lays down.
E|--------------
B|--------------
G|--------0--0--
D|---0h2--------
A|--------------
E|--------------

Paste any tab in acousterr's tab maker and we'll play it !!!
Now supports capo and sound effects for vibrato/pull-off/hammer/bends/mutes etc !!! Checkout help section
tabs and chords, guitar tabs, music transcription, music technology, deep learning, music information retrieval, transcribe into tabs & chords, chordify, music renditions, songsterr, reverbnation, tabulature, bollywood chords, ultimate guitar, yousician, guitar lessons, acoustic guitar, electric guitar, guitar tuner, 911 tabs