Guitar Tabs for Violet Evergarden Ed - Michishirube - Minori Chihara (guitar Tab)

Standard Tuning
Capo on 2nd fret 

Intro
E|--------------------------------------------------------------------------------
B|--------------------------0-----------------3-----0-----------------------------
G|--0-----0--0--2-----0--2--------------------------------2-----0-----0-----------
D|--------------------------------------------------------------------------------
A|--------------------------------------------------------------------------------
E|--------------------------------------------------------------------------------
Interlude
E|--------------------------------------------------------------------------------------------------
B|--------------------------0--1--0-----------------------------3-----0-----------------1-----0-----
G|--0-----0--0--2-----0--2-----------2--0-----------0-----0--2-----------2--0--------0--------------
D|--0--0-----------0--------0-----------------0--2--------------------------0-----4-----------------
A|--------------3-----------------------------------2-----------3-----------------------------------
E|--3-----------------------------------0-----------------------------------------------3-----------
Song
E|--------------------------------------------------------------------------------------------------
B|--------------------------0-----------------------3-----0-----------------------------------------
G|--0-----0--0--2-----0--2--0-----------------------0-----0-----2--------0--0-----------------------
D|--0-----------0-----------------------4-----------------------0-----------0-----------------------
A|--------------------------------------5-----------3-----------------------------------------------
E|--3-----------2-----------0-----------------------------------------------3-----------------------

E|-----------------------------2--3-----2--------------------------------------------------------
B|--------------------------------------------3--0-----------0--------------1-----0--------------
G|--0-----0--0--2-----0--2--0-----------0-----------2-----2-----2-----0--2-----------------------
D|--0--0--------0--0--------------------------------------------0--------------------------------
A|--------------------------------------------------3--------------------------------------------
E|--3-----------2-----------0-----------------------------------------------3--------------------

E|-----0-----5--3--------5--3-----3--5--7-----------
B|--3-----3-----------3-----------------------------
G|--------------------------------------------0-----
D|-----------------0-----------------------------0--
A|-----3--------------------------------------------
E|-----------------------------0--------------------

E|-----0-----5--3--------5--3-----3--2--------------
B|--3-----3-----------3-----------------3-----------
G|--------------------------------------------------
D|-----------------0--------------------------0--0--
A|-----3--------------------------------------------
E|-----------------------------0--------------------

E|-----0-----5--3--------5--3-----5--5--7--------------
B|--3-----3-----------3--------------------------------
G|--------------------------------------------0-----0--
D|-----------------0-----------------------------0-----
A|-----3-----------------------------------------------
E|-----------------------------0-----------------------

E|--------------------------------------------------
B|-----3--3--3--3--1--0--1--0-----------------------
G|-----------------------------2--2-----------0-----
D|--------------------------0--------------0-----0--
A|--0-----------------------------------------------
E|--------------------------------------------------

E|--------------------------------------------------------------------------------------------------
B|--------------------------0-----------------------3-----0-----------------------------------------
G|--0-----0--0--2-----0--2--0-----0-----------0-----0-----0--0--2-----0--0--0-----0-----0-----0-----
D|--0--0--------0--0-----------0-----0-----4-----0-----0--------0--0--------0--0-----0-----0-----0--
A|--------------------------------------5-----------3-----------------------------------------------
E|--3-----------2-----------0-----------------------------------------------3-----------2-----------

E|-----------------------------2--3-----2--------------------------------------------------
B|--------------------------------------------3--0-----------0-----------------------------
G|--0-----0--0--2-----0--2--0-----------0-----------2-----2-----2-----0--2--0--------------
D|--0--0--------0--0--------------------------------------------0--------------------------
A|--------------------------------------------------3--------------------------------------
E|--3-----------2-----------0-----------------------------------------------3--------------



tabs and chords, guitar tabs, music contests, music covers, songsterr, reverbnation, renditions, tabulature, bollywood chords, ultimate guitar, yousician, guitar lessons, torrins, fender, gibson, acoustic guitar, electric guitar, youtube covers, gootar, guitar tuner, A-Z tabs, 911 tabs