Guitar Tabs for Various Artists 2

Tabs for Song : Various Songs

Shape Of My Heart
E|--5-----5-----4-----4-----2-----2-----2--1--
B|-----2-----------2-----------0--------------
G|--------------------------------------------
D|--------------------------------------------
A|--------------------------------------------
E|--------------------------------------------

Numb
E|--0--3--0--5-----8--7-----0--3--0--8-----7--3--
B|-----------------------------------------------
G|-----------------------------------------------
D|-----------------------------------------------
A|-----------------------------------------------
E|-----------------------------------------------

E|--0--3--0--5-----8--7-----0--3--0--8-----7--3--
B|-----------------------------------------------
G|-----------------------------------------------
D|-----------------------------------------------
A|-----------------------------------------------
E|-----------------------------------------------

In The End
E|--0-----7--7-----3--2-----2--2--2--3--
B|--------------------------------------
G|--------------------------------------
D|--------------------------------------
A|--------------------------------------
E|--------------------------------------

E|--0-----7--7-----3--2-----2--2--2--3--
B|--------------------------------------
G|--------------------------------------
D|--------------------------------------
A|--------------------------------------
E|--------------------------------------

Nothing Else Matters
E|-----------0--------------------0--------------------0--------------------0-----7--
B|--------0-----0--------------0-----0--------------0-----0--------------0-----0-----
G|-----0-----------0--------0-----------0--------0-----------0--------0--------------
D|-----------------------------------------------------------------------------------
A|-----------------------------------------------------------------------------------
E|--0--------------------0--------------------0--------------------0-----------------


tabs and chords, guitar tabs, music transcription, music technology, deep learning, music information retrieval, transcribe into tabs & chords, chordify, music renditions, songsterr, reverbnation, tabulature, bollywood chords, ultimate guitar, yousician, guitar lessons, acoustic guitar, electric guitar, guitar tuner, 911 tabs