Guitar Tabs for Various Artists

(/) Slide Up  (\) Slide Down  (h) Hammer On  (p) Pull Off  (b) Bend (r) Release (v) Vibrato (x) Muted

Tabs for Song : Various Songs

Smoke On Water
E|-----------------------------------------------
B|-----------------------------------------------
G|-----------------------------------------------
D|-----------------------------------------------
A|-----------------------------------------------
E|--0--3--5-----0--3--6--5-----0--3--5-----3--0--

Peter Gun Theme
E|--------------------------
B|--------------------------
G|--------------------------
D|--------------------------
A|--------------------------
E|--0--0--2--0--3--0--5--4--

Marry Had A Lamb
E|--4--2--0--2-----4--4--4-----2--2--2-----4--4--4--
B|--------------------------------------------------
G|--------------------------------------------------
D|--------------------------------------------------
A|--------------------------------------------------
E|--------------------------------------------------

Seven Nation Army
E|--------------------------------
B|--------------------------------
G|--------------------------------
D|--------------------------------
A|--7-----7-----10-7--5--3-----2--
E|--------------------------------



Paste any tab in acousterr's tab maker and we'll play it !!!
Now supports capo and sound effects for vibrato/pull-off/hammer/bends/mutes etc !!! Checkout help section
tabs and chords, guitar tabs, music transcription, music technology, deep learning, music information retrieval, transcribe into tabs & chords, chordify, music renditions, songsterr, reverbnation, tabulature, bollywood chords, ultimate guitar, yousician, guitar lessons, acoustic guitar, electric guitar, guitar tuner, 911 tabs