Valley Of Eternity - Marty Friedman - Guitar Tabs

Guitar 2
    
                                                                                                                                                                                                                                                                                                                                                                                                                                                                                                                                                                                                 
E|----------------------------|
B|-----------8---8/12-(12-----|
G|----------------------------|
D|----------------------------|
A|----------------------------|
E|----------------------------|

    
                                                                                                                                                                                                                                                                                                                                                                                                                                                                                                                                                                                                 
E|-------------------------|
B|--7----------------------|
G|-------------------------|
D|-------------------------|
A|-------------------------|
E|-------------------------|

    
                                                                                                                                                                                                                                                                                                                                                                                                                                                                                                                                                                                                 
E|--------0----------------|
B|--------0----------------|
G|-------------------------|
D|-------------------------|
A|-------------------------|
E|-------------------------|

    
                                                                                                                                                                                                                                                                                                                                                                                                                                                                                                                                                                                                 
E|--------0----------------|
B|--------0----------------|
G|-------------------------|
D|-------------------------|
A|-------------------------|
E|-------------------------|

    
                                                                                                                                                                                                                                                                                                                                                                                                                                                                                                                                                                                                                                                                                                                                                                                                                                                                                                                                                                                                                                                                                                                                                                                              
E|--------------3-----------------------3----------|-----------------------------------------------|
B|--------0--------0-----0--------0--------0-----0-|------------3-----------------------3----------|
G|-----0-----0--------0--------0-----0--------0----|------2--------2-----2--------2--------2-----2-|
D|-------------------------------------------------|---0-----0--------0--------0-----0--------0----|
A|-------------------------------------------------|-----------------------------------------------|
E|--3-----------------------3----------------------|2-----------------------2----------------------|

    
                                                                                                                                                                                                                                                                                                                                                                                                                                                                                                                                                                                                                                                                                                                                                                                                                                                                                                                                                                                                                                                                                                                                                                                              
E|--------------0-----------------------0----------|------------2-----------------------2----------|
B|--------0--------0-----0--------0--------0-----0-|------3--------3-----3--------3--------3-----3-|
G|-----0-----0--------0--------0-----0--------0----|---2-----2--------2--------2-----2--------2----|
D|-------------------------------------------------|0-----------------------0----------------------|
A|-------------------------------------------------|-----------------------------------------------|
E|--0-----------------------0----------------------|-----------------------------------------------|

    
                                                                                                                                                                                                                                                                                                                                                                                                                                                                                                                                                                                                                                                                                                                                                                                                                                                                                                                                                                                                                                                                                                                                                                                              
E|--------------0-----------------------0----------|------------2-----------------------0----------|
B|--------0--------0-----0--------1--------1-----1-|------3--------3-----3--------1--------1-----1-|
G|-----0-----0--------0--------2-----2--------2----|---2-----2--------2--------0-----0--------0----|
D|-------------------------------------------------|0----------------------------------------------|
A|--------------------------0----------------------|------------------------3----------------------|
E|--0----------------------------------------------|-----------------------------------------------|

    
                                                                                                                                                                                                                                                                                                                                                                                                                                                                                                                                                                                                                                                                                                                                                                                                                                                                                                                                                                                                                                                                                                                                                                                              
E|-----------0-----------0-----------0-----------3-|------------3-----------3----------|
B|--------1-----------1-----------1-----------2----|------0--------0-----0-------------|
G|-----2-----------0-----------2-----------3-------|---0-----0--------0----------------|
D|--------------------------------------2----------|-----------------------------------|
A|--0-----------3-----------0----------------------|-----------------------------------|
E|-------------------------------------------------|3----------------------------------|

    
                                                                                                                                                                                                                                                                                                                                                                                                                                                                                                                                                                                                                                                                                                                                                                                                                                                                                                                                                                                                                                                                                                                                                                                              
E|----------------------------------------------|-----------------------|
B|--------------------------------10------------|-----------------------|
G|--------------11-11-11----14-------12p11------|12---------------------|
D|----------------------------------------------|-----------------------|
A|----------------------------------------------|-----------------------|
E|----------------------------------------------|-----------------------|

    
                                                                                                                                                                                                                                                                                                                                                                                                                                                                                                                                                                                                 
E|----------------------------------------|
B|-----10/7---7/5---5/3--3---5/7--7-------|
G|----------------------------------------|
D|----------------------------------------|
A|----------------------------------------|
E|----------------------------------------|

    
                                                                                                                                                                                                                                                                                                                                                                                                                                                                                                                                                                                                 
E|----------------------------------------------------------------------------------|
B|-----15/12-12/10-10/7---7/10p12-10-12-10-12-10-12-10-12-10-12-10-12-10-12-10-12-10|
G|----------------------------------------------------------------------------------|
D|----------------------------------------------------------------------------------|
A|----------------------------------------------------------------------------------|
E|----------------------------------------------------------------------------------|

    
                                                                                                                                                                                                                                                                                                                                                                                                                                                                                                                                                                                                 
E|--------------3-----------3----------|
B|--------0--------0-----0-------------|
G|-----0-----0--------0----------------|
D|-------------------------------------|
A|--3----------------------------------|
E|-------------------------------------|

    
                                                                                                                                                                                                                                                                                                                                                                                                                                                                                                                                                                                                                                                                                                                                                                                                                                                                                                                                                                                                                                                                                                                                                                                              
E|----------------------------|-----------------------------------------|
B|----------------------------|-----------------------------------------|
G|----------------------------|5-----5--5--5--7--9---7p9--7--5----------|
D|--7-----7-----5--9--5--7----|---------------------------------7-------|
A|----------------------------|-----------------------------------------|
E|----------------------------|-----------------------------------------|

    
                                                                                                                                                                                                                                                                                                                                                                                                                                                                                                                                                                                                                                                                                                                                                                                                                                                                                                                                                                                                                                                                                                                                                                                              
E|----------------------------|-----------------------------------------|
B|----------------------------|-----------------------------------------|
G|----------------------------|5-----5--5--5--7--9---7p9--7--5----------|
D|--7-----7-----5--9--5--7----|---------------------------------7-------|
A|----------------------------|-----------------------------------------|
E|----------------------------|-----------------------------------------|

    
                                                                                                                                                                                                                                                                                                                                                                                                                                                                                                                                                                                                                                                                                                                                                                                                                                                                                                                                                                                                                                                                                                                                                                                              
E|--0----------------------|---------------0----------------------------|
B|--0----------------------|---------0--------0-----------0-----0--0----|
G|--1----------------------|------2--------------2-----2-----2----------|
D|--2----------------------|---3--------------------------------------3-|
A|--2----------------------|3-------------------------------------------|
E|--0----------------------|--------------------------------------------|

    
                                                                                                                                                                                                                                                                                                                                                                                                                                                                                                                                                                                                                                                                                                                                                                                                                                                                                                                                                                                                                                                                                                                                                                                              
E|--------------0--------------------------0----|------------0--------------------0----------|
B|-----------0-----0-----------------0--------0-|---------1-----1--------------0-----0-------|
G|--------3-----------3-----------3-------------|------3-----------3--------3-----------3----|
D|-----4-----------------4-----4----------------|---2--------------------4-----------------4-|
A|--4-----------------------4-------------------|3--------------------4----------------------|
E|----------------------------------------------|--------------------------------------------|

    
                                                                                                                                                                                                                                                                                                                                                                                                                                                                                                                                                                                                                                                                                                                                                                                                                                                                                                                                                                                                                                                                                                                                                                                              
E|--------------0--------------------0----------|------------3-----2----------|
B|-----------1-----1--------------1-----1-----1-|---------0-------------------|
G|--------3-----------3--------3-----------3----|------2----------------------|
D|-----2--------------------2-------------------|---1-------------------------|
A|--3-------------------------------------------|2----------------------------|
E|----------------------------------------------|-----------------------------|

About Scenes (album) : Marty Friedman's second studio album, Scenes, released on November 17, 1992 . It is a notable stylistic departure from his first album, Dragon's Kiss . The final track, "Triumph", is a remake of "Thunder March" Scenes gave Scenes three stars out of five . The production by KitarĊ and keyboards by Brian BecVar were also heavily praised . AllMusic gave the recording a "level of depth and maturity" Scenes (album)'s most popular songs include Triumph,Thunder March,Dragon's Kiss. It had a contribution from notable artists like Marty Friedman. It had an affiliation to bands - Scenes. Its music is influenced by genres - instrumental rock , ambient.

tabs and chords, guitar tabs, music transcription, music technology, deep learning, music information retrieval, transcribe into tabs & chords, chordify, music renditions, songsterr, reverbnation, tabulature, bollywood chords, ultimate guitar, yousician, guitar lessons, acoustic guitar, electric guitar, guitar tuner, 911 tabs