Guitar Tabs for Lucretia (marty Friedman)

(/) Slide Up  (\) Slide Down  (h) Hammer On  (p) Pull Off  (b) Bend (r) Release (v) Vibrato (x) Muted

Tabs for Song : 
BPM : 200

Song lyrics here
E|-----------------------------5--9--8--5-----------------------------------------------------------------------------------
B|-----------------------7--9--------------9--7-----------------------------------------------------------------------------
G|--4--6--7--6-----5--6--------------------------6--5--------------------------------------------------------------14-16----
D|-----------------------------------------------------7--6-----9--7--6--6--7--6--7--6--------------7--9--------16-------16-
A|--------------------------------------------------------------------------------------9--7-----9--------9-----------------
E|--------------------------------------------------------------------------------------------------------------------------

E|--14-------------------------------5--2-----9--6--------9--5--9--5-----14-9-----------12-7-----------
B|-----17-14-------------16----16-2--------2--------7-----------------7--------10-------------9--------
G|-----------16-14-16-14-------------------------------6--------------------------11-9-----------9-----
D|--------------------------------------------------------------------------------------------------9--
A|-----------------------------------------------------------------------------------------------------
E|-----------------------------------------------------------------------------------------------------

E|-----------------8--10-7-----------------
B|--------------------------8--8--7--------
G|--------5--7--4--------------------9--8--
D|-----------------------------------------
A|--7--5-----------------------------------
E|-----------------------------------------

Song lyrics here
E|--
B|--
G|--
D|--
A|--
E|--

Paste any tab in acousterr's tab maker and we'll play it !!!
Now supports capo and sound effects for vibrato/pull-off/hammer/bends/mutes etc !!! Checkout help section
tabs and chords, guitar tabs, music transcription, music technology, deep learning, music information retrieval, transcribe into tabs & chords, chordify, music renditions, songsterr, reverbnation, tabulature, bollywood chords, ultimate guitar, yousician, guitar lessons, acoustic guitar, electric guitar, guitar tuner, 911 tabs