Guitar Tabs for Valentine's Day Special Lead Mashup

(/) Slide Up  (\) Slide Down  (h) Hammer On  (p) Pull Off  (b) Bend (r) Release (v) Vibrato (x) Muted

Tabs for Song : Valentine's Day Mashup

Mile ho tum humko Bade naseebon se
E|--------------------------------------------------
B|-----13-13-13-13-13-12-10-10-12-12-12-12-12-10----
G|--9--------------------------------------------12-
D|--------------------------------------------------
A|--------------------------------------------------
E|--------------------------------------------------

Churaya hai maine Kismat ki lakeeron se
E|--------------------------------------------------------
B|-----10-10-10-10-10----------------12-12-12/13-10-12-10-
G|--12----------------12-10-9--9--9-----------------------
D|--------------------------------------------------------
A|--------------------------------------------------------
E|--------------------------------------------------------

Dheere Dheere Se Meri Zindagi Mein Aana
E|-----------------------------------------------------
B|--8--10-10/13-12\10-10-13-12-12-10-10-10/12-10\8--8--
G|-----------------------------------------------------
D|-----------------------------------------------------
A|-----------------------------------------------------
E|-----------------------------------------------------

Dheere Dheere Se Mere Dil Ko Churaana
E|-----------------------------------------
B|--8--10-10/13-12\10-10-13-12-10-12-10-10-
G|-----------------------------------------
D|-----------------------------------------
A|-----------------------------------------
E|-----------------------------------------

Gulabi aankhen jo teri dekhi sharabi yeh dil ho gaya
E|-----------------------------------------------------------------------
B|-----------12/13-13-13-12-13-13/15-12-12-10-12-12/13-10-10-9--10-10/12-
G|--9--9--9--------------------------------------------------------------
D|-----------------------------------------------------------------------
A|-----------------------------------------------------------------------
E|-----------------------------------------------------------------------

Sambhalo mujhko oh mere yaaron sambhalna mushkil ho gaya
E|-----------------------------------------------------------------------
B|-----------12/13-13-13-12-13-13/15-12-12-10-12-12/13-10-10-9--10-10/12-
G|--9--9--9--------------------------------------------------------------
D|-----------------------------------------------------------------------
A|-----------------------------------------------------------------------
E|-----------------------------------------------------------------------

Tu Hi Ye Mujhko Bata De Chahun Main Ya Naa
E|-----------------------------------------------------
B|-----13-12-12/13-12-10-10/12-12\10\8--8--10-12-10-10-
G|--9--------------------------------------------------
D|-----------------------------------------------------
A|-----------------------------------------------------
E|-----------------------------------------------------

Apne Tu Dil Ka Pata De Chahun Main Ya Naa
E|-----------------------------------------------------
B|-----13-12-12/13-12-10-10/12-12\10\8--8--10-12-10-10-
G|--9--------------------------------------------------
D|-----------------------------------------------------
A|-----------------------------------------------------
E|-----------------------------------------------------
tabs and chords, guitar tabs, music transcription, music technology, deep learning, music information retrieval, transcribe into tabs & chords, chordify, music renditions, songsterr, reverbnation, tabulature, bollywood chords, ultimate guitar, yousician, guitar lessons, acoustic guitar, electric guitar, guitar tuner, 911 tabs