Guitar Tabs for Lead Guitar Mashup

E|-----------0--------------------------------------------------------------------------------------
B|-----------------------3------------1p0--------------------------------0-----1-----3-----0--1--3--
G|--------2--------------------------------2---0h2-----------0-----2-----0--------------2-----------
D|-----2--------------2-----------2-----------------------3-----------------------------------------
A|--0--------------0-----------0-----------------------3--------------------------------------------
E|--------------------------------------------------1-----------------------------------------------

E|-----8--10-10/12-12-12----12-10-8--7--8-----5--5-----
B|-----------------------------------------------------
G|-----------------------------------------------------
D|-----------------------------------------------------
A|-----------------------------------------------------
E|-----------------------------------------------------

E|--5--7---7/8--8--8-----8--7--5--3--5-----3--3------7h-8p-7h8--8--8---8h10p-8h10-10-10----
B|-----------------------------------------------------------------------------------------
G|-----------------------------------------------------------------------------------------
D|-----------------------------------------------------------------------------------------
A|-----------------------------------------------------------------------------------------
E|-----------------------------------------------------------------------------------------

E|-----------8--8-----8--7--8---8/10-7-----7--5--7---7/8--5-----5--4---4/7-----
B|--5--5--5--------------------------------------------------------------------
G|-----------------------------------------------------------------------------
D|-----------------------------------------------------------------------------
A|-----------------------------------------------------------------------------
E|-----------------------------------------------------------------------------

E|--5--7--8--7--5---7/8--8--7--5--7--8--7--5-----3--5--7--5--3---5/7--7--5--5--7--8--7--5--
B|-----------------------------------------------------------------------------------------
G|-----------------------------------------------------------------------------------------
D|-----------------------------------------------------------------------------------------
A|-----------------------------------------------------------------------------------------
E|-----------------------------------------------------------------------------------------
tabs and chords, guitar tabs, music transcription, music technology, deep learning, music information retrieval, transcribe into tabs & chords, chordify, music renditions, songsterr, reverbnation, tabulature, bollywood chords, ultimate guitar, yousician, guitar lessons, acoustic guitar, electric guitar, guitar tuner, 911 tabs