Guitar Tabs for Unravel

(/) Slide Up  (\) Slide Down  (h) Hammer On  (p) Pull Off  (b) Bend (r) Release (v) Vibrato (x) Muted

Tabs for Song : 
BPM : 130

Song lyrics here 
E|--------------------------------------------------------------------------------------
B|--------------------------------------------------------------------------------1--3--
G|--3--5--3--2--0-----5--3--2--0-----0--------------------------------------------------
D|--------------------------------------3-----1--1--3--0-----------0--0--0--0-----------
A|--------------------------------------------------------------------------------------
E|--------------------------------------------------------------------------------------

E|-----------------------------------------------------------------------------------
B|-----------------------------------------------------------------------------------
G|--3--2--2--2--3--3--------3--5--3--2--0-----5--3--2--0-----------------------------
D|-----------------------------------------------------------5--3-----1--1--3--0-----
A|-----------------------------------------------------------------------------------
E|-----------------------------------------------------------------------------------

E|-----------------------------------------------------------------------------------------------------
B|-----------------3--3--------------------------------------------------------3-----------3-----------
G|--------------------------3--2--2--2--3--3--------2-----2--2--2--2-----2--------0--3--2-----0--3--2--
D|--0--0--0--0-----------------------------------------------------------------------------------------
A|-----------------------------------------------------------------------------------------------------
E|-----------------------------------------------------------------------------------------------------

E|--8--6--5-----10-8--6--5-----10-6--10-3-----------------3--1--6--5--------6-----3-----------5--8-----
B|-----------------------------------------------1-----3-----------------3-----3-----------6-----------
G|--------------------------------------------2--------------------------------------------------------
D|-----------------------------------------------------------------------------------------------------
A|-----------------------------------------------------------------------------------------------------
E|-----------------------------------------------------------------------------------------------------

E|-----6-----3-----1--6--5--------6-----3-----1--5--8--------6-----3-----1--6--5-----------------------
B|--3-----3--------------------3-----3--------------------3-----3--------------------------------------
G|-----------------------------------------------------------------------------------------------------
D|-----------------------------------------------------------------------------------------------------
A|-----------------------------------------------------------------------------------------------------
E|-----------------------------------------------------------------------------------------------------

E|-----------------------------------------------------------------------------------------1-----------
B|-----------------1-----------------------------------3--3--1--1-----------------------------3--------
G|-----0--3--0-----------0--3--0-----2--3--3--3-----3-----------------3--5--3--2-----------------------
D|--------------------------------------------------------------------------------3--0-----------------
A|-----------------------------------------------------------------------------------------------------
E|-----------------------------------------------------------------------------------------------------

E|--------------------------------------------------------------------------------------------10-8-----
B|--1--3-----6--6--3--3--1--1--3--3-----6--6--3--3--1-----------6--6--3--3--1--1--3--3-----------------
G|-----------------------------------------------------3--3--------------------------------7-----------
D|-----------------------------------------------------------------------------------------------------
A|-----------------------------------------------------------------------------------------------------
E|-----------------------------------------------------------------------------------------------------

E|--------------------------------------------------------------------------------------------------------
B|--3--1--1--1-----------------------3--1--1--------------------------------------8--6--3-----------------
G|-----------------3--2--3--2-----------------3-----3--2--3--2-----10----2--2--------------3--2--3--0--2--
D|-----------------------------3--------------------------------------------------------------------------
A|--------------------------------------------------------------------------------------------------------
E|--------------------------------------------------------------------------------------------------------

E|-----------------------------------------------------------------------------5-----------3--1-----------
B|-----------------------3--1--1--1-----------------------3--1--1--1--------------3--------------3--------
G|--3-----2--2--3--2-----------------3--3--2--3-----------------------3--2--3-----------2-----------3-----
D|--------------------3--------------------------3-----3--------------------------------------------------
A|--------------------------------------------------------------------------------------------------------
E|--------------------------------------------------------------------------------------------------------

E|--------------------6--8--6-----5-----------6--8--6--10-------------------10-10----6--5--5--5--6--6-----
B|--------------------------------------------------------------------------------------------------------
G|--2--3--2--0--2--3--------------------------------------------5--5--5--5--------------------------------
D|--------------------------------------------------------------------------------------------------------
A|--------------------------------------------------------------------------------------------------------
E|--------------------------------------------------------------------------------------------------------








tabs and chords, guitar tabs, music transcription, music technology, deep learning, music information retrieval, transcribe into tabs & chords, chordify, music renditions, songsterr, reverbnation, tabulature, bollywood chords, ultimate guitar, yousician, guitar lessons, acoustic guitar, electric guitar, guitar tuner, 911 tabs