Guitar Tabs for Unravel

(/) Slide Up  (\) Slide Down  (h) Hammer On  (p) Pull Off  (b) Bend (r) Release (v) Vibrato (x) Muted

Tabs for Song : 
capo at 3rd fret
E|--0--5--3--2--0--5--3--2--0--------------------------------------------
B|-----------------------------3--3--1--3--0-----------------------------
G|-----------------------------------------------------------------------
D|-----------------------------------------------------------------------
A|-----------------------------------------------------------------------
E|--------------------------------------------0--------------------------

E|---------------5/7--7--------3--2--2--2--3--3--------------------------
B|--0--0--0--0-----------------------------------------------------------
G|-----------------------------------------------------------------------
D|--------------------------------0--------------------------------------
A|-----3-----------------------------------------------------------------
E|-----------------------0--0--------------------0-----------------------

E|---3/5--5--3-----2--0--5-----3--2-----0--0-----------------------------
B|--------------------------------------------3--3--1--3--0--------------
G|-----------------------------------------------------------------------
D|--------------------------------------------0--------------------------
A|--------3-----3--------------------------------------------------------
E|--------------------------0--------0-----------------------0--0--------

E|---------------5/7--7--------3--2--2--2--3--3--------------------------
B|--0--0--0--0-----------------------------------------------------------
G|-----------------------------------------------------------------------
D|--------------------------------0--------------------------------------
A|-----3-----------------------------------------------------------------
E|-----------------------0--0--------------------------------------------

Up Down Mute Down Up Down Mute
E|--0-----0-----x-----0-----0-----0-----x--7--0--0--5--0--0--3--0--7--0--0--5--0--0--3--
B|--0-----0-----x-----0-----0-----0-----x-----------------------------------------------
G|--0-----0-----x-----0-----0-----0-----x-----------------------------------------------
D|--2-----2-----x-----2-----2-----2-----x-----------------------------------------------
A|--2-----2-----x-----2-----2-----2-----x-----------------------------------------------
E|--0-----0-----x-----0-----0-----0-----x-----------------------------------------------

Up Down Mute Down Up Down Mute
E|--0-----0-----x-----0-----0-----0-----x--------------------------------
B|--0-----0-----x-----0-----0-----0-----x--------------------------------
G|--0-----0-----x-----0-----0-----0-----x--------------------------------
D|--2-----2-----x-----2-----2-----2-----x--------------------------------
A|--2-----2-----x-----2-----2-----2-----x--------------------------------
E|--0-----0-----x-----0-----0-----0-----x--------------------------------

E|-----3--------------------------------3-----------------------------------
B|-----------3---------0h-1p0--------------------3---------0h-1p0-----------
G|--0------------0h2------------2p0--0---------------0h2------------2p0--0--
D|---------------------------------------------------0----------------------
A|---------------0-------------------3--------3-----------------------------
E|--0------x----------------x--------------x--------------------x--------0--

                                                                         Up
E|-----3--------------------------------3--------------------------------3--
B|-----------3---------0h-1p0--------------------3---------0h-1p0--------3--
G|--0------------0h2------------2p0--0---------------0h2------------2p0--2--
D|---------------------------------------------------0-------------------0--
A|---------------0-------------------3--------3-----------------------------
E|--0------x----------------x--------------x--------------------x-----------

E|--0--0--0-----0--7--7--5--5-----3---3h5--3--2--------------------------
B|--0--------------------------------------------3------------3p0--------
G|---------------------------------------------------2h4-----------------
D|------------------------------------0----------------------------------
A|--------------------3--------------------------------------------------
E|--0--------x-----------------x--------------------------3--------------

E|-----------------------------------------------------------------------
B|--3--3--0--0-----------0--0-----3--3--0--0-----------0--0--------------
G|-----------------2--2--------------------------2--2--------------------
D|-----------------------------------------------------------------------
A|-----------------------------------------------------------------------
E|-----0--------0-----0--------0-----0--------0-----0--------0-----------

E|-----------------------------0-----------------------------------------
B|--3--3--0--0-----------0--0--0-----------------------------------------
G|-----------------2--2--------0-----------------------------------------
D|-----------------------------2-----------------------------------------
A|-----------------------------2-----------------------------------------
E|-----0--------0-----0--------0-----------------------------------------

E|--0--7--5--7--5-----5--5--3-----3--2--3-----2--------------------------
B|--0--8--7-----------------------------------------3-----3--------------
G|-----------------------------------------------------------------------
D|-----------------------------------0-----------0-----------------------
A|-----------3-----------3-----------------------------------------------
E|-----------------x-----------x-----------x-----------x-----------------

E|--7--5-----5--5--3--3-----3--2--3-----10-------------------------------
B|--------------------------------------------8--------------------------
G|-----------------------------------------------------------------------
D|-----------------------------0-----------0-----------------------------
A|-----------------------------------------------------------------------
E|--0-----x-----0--------x-----------x-----------x-----------------------

E|-----12-10-------------3--3--2--0-----2-----3-----3--3--3--2--3--2-----
B|--8-----------8--8--------------------------------0--0-----------------
G|--------------------------------------------------0--0-----------------
D|--------------------------0--------0--------------2--2-----0--------0--
A|--------------------------------------------------2--2-----------------
E|-----8-----x-----8--x--------x-----------x-----0--0--0--------x--------

E|-----------7--5-----5--5--3-----3--2--3-----2--------------------------
B|--------------------------------------------------3-----3--------------
G|-----------------------------------------------------------------------
D|-----------------------------------0-----------0-----------------------
A|-----------3-----------3-----------------------------------------------
E|-----------------x-----------x-----------x-----------x-----------------

E|--7--5-----5--5--3--3-----3--2--3-----10-------------------------------
B|--------------------------------------------8--------------------------
G|-----------------------------------------------------------------------
D|-----------------------------0-----------0-----------------------------
A|-----------------------------------------------------------------------
E|--0-----x-----0--------x-----------x-----------x-----------------------

                                                 Up & Down
E|-----12-10-------------3--3--2--0-----2-----3-----3--3--3--2--0--2--3-----3--
B|--8-----------8--8--------------------------------0-----------------------0--
G|--------------------------------------------------0-----------------------0--
D|--------------------------0--------0--------------2-----0-----------------2--
A|--------------------------------------------------2-----------------------2--
E|-----8-----x-----8--x--------x-----------x-----0--0--------------------0--0--

Paste any tab in acousterr's tab maker and we'll play it !!!
Now supports capo and sound effects for vibrato/pull-off/hammer/bends/mutes etc !!! Checkout help section
tabs and chords, guitar tabs, music transcription, music technology, deep learning, music information retrieval, transcribe into tabs & chords, chordify, music renditions, songsterr, reverbnation, tabulature, bollywood chords, ultimate guitar, yousician, guitar lessons, acoustic guitar, electric guitar, guitar tuner, 911 tabs