Guitar Tabs for Under The Bridge

[Verse 1]

e|---------------------|-------------------------|----------------------|
B|-9----x--7--------x--|-------9----4-----5------|-9----x--7------------|
G|-9----x--8--------x--|-------9----4-----6------|-9----x--8------------|
D|-9----x--9--------x--|-9/11--9----6-----7------|-9----x--9------------|
A|-7----x--9--------x--|-9/11-------6-----7------|-7----x--9------------|
E|---------------------|-------------------------|----------------------|
  Sometimes I feel like I don't have a partner Sometimes I feel like my

e|--------------------|--------------------|---------------------|-----------|
B|-9------5-----------|-9------7-----------|-9------4----5-------|-9----x--7-|
G|-9------6-----------|-9------8-----------|-9------4----6-------|-9----x--8-|
D|-11-----7-----------|-9------9-----------|-11-----6----7-------|-9----x--9-|
A|-11-----7-----------|-7------9-----------|-11-----6----7-------|-7----x--9-|
E|--------------------|--------------------|---------------------|-----------|
  only friend is the   city I live in the city of angels    Lonely as I am
 toge-

e|-------------------|------------------|
B|-9------5----------|-9----------------|
G|-9------6----------|-8----------------|
D|-11-----7----------|-9----------------|
A|-11-----7----------|-7----------------|
E|-------------------|------------------|


[Chorus]

e|-----------------------|-11-11-11-11---9-----9---9---x-x-|
B|---10----9--9----9-----|-12-12-12-12---10----10--10--x-x-|
G|---11----9--9----9-----|-11-11-11-11---11----11--11--x-x-|
D|---11----9--9----9-----|---------------11----11--11--x-x-|
A|---9-----7--7----7-----|---------------9-----9---9---x-x-|
E|-----------------------|---------------------------------|
tabs and chords, guitar tabs, music transcription, music technology, deep learning, music information retrieval, transcribe into tabs & chords, chordify, music renditions, songsterr, reverbnation, tabulature, bollywood chords, ultimate guitar, yousician, guitar lessons, acoustic guitar, electric guitar, guitar tuner, 911 tabs