Bass Tabs for Uncontrollable Urge




G|-----------------------------------------------------------------
D|--1--1--1--3-----1--1--1--3-----1--1--1--3--3--3--3--3--3--3--3--
A|-----------------------------------------------------------------
E|-----------------------------------------------------------------


G|-----------------------------
D|--5--3--------5--5--3--------
A|--------5--------------5-----
E|-----------------------------


G|--------------------------
D|--------------------------
A|--------------------------
E|--3--3--3--3--3--3--3--3--


G|-----------------------------------------------------------
D|--------------------------------------------------5--3-----
A|--------------------------------------------------------5--
E|--3--3--3--3--3--3--3--3--3--3--3--3--3--3--3--3-----------


G|--------------------------------------------------------------------------------------
D|--------------------------------------1--------------------1--------------------------
A|--3-----1-----------------3-----1--------------3-----1--------------------3--------1--
E|--------------1--------------------------------------------------1--------------------

tabs and chords, guitar tabs, music transcription, music technology, deep learning, music information retrieval, transcribe into tabs & chords, chordify, music renditions, songsterr, reverbnation, tabulature, bollywood chords, ultimate guitar, yousician, guitar lessons, acoustic guitar, electric guitar, guitar tuner, 911 tabs