Guitar Tabs for Thing

(/) Slide Up  (\) Slide Down  (h) Hammer On  (p) Pull Off  (b) Bend (r) Release (v) Vibrato (x) Muted

Tabs for Song : 
BPM : 120



Song lyrics here 
E|--------------0-----------------------0-----------------------------------------------------------------------0-----------------------0-----------------------------------------------------------
B|-----------1-----1-----------------1-----1--------------------1-----------------------1--------------------1-----1-----------------1-----1--------------------1-----------------------1-----------
G|--------0-----------0-----------2-----------2--------------2-----2-----------------1-----1--------------0-----------0-----------2-----------2--------------2-----2-----------------1-----1--------
D|-----2-----------------2-----2-----------------2--------3-----------3-----------3-----------3--------2-----------------2-----2-----------------2--------3-----------3-----------3-----------3-----
A|--3-----------------------0--------------------------3-----------------3-----3-----------------3--3-----------------------0--------------------------3-----------------3-----3-----------------3--
E|--------------------------------------------------1-----------------------1-----------------------------------------------------------------------1-----------------------1-----------------------

Song lyrics here 

Use manual mode to free up cursor. Paste any tab in acousterr tab maker and we'll play it !!!

Guitar Tabs for Thing








E|-----------------------------------------------------------------------------------------------------------------------------------------------------------------------------
B|-----------------------------------------------------------------------------------------------------------------------------------------------------------------------------
G|-----------------------------------------------------------------------------------------------------------------------------------------------------------------------------
D|-----------------------------------------------------------------------------------------------------------------------------------------------------------------------------
A|--3-----------3-----2-----0-----------0-----------------------------------------------0-----2-----3-----------3-----2-----0-----------0--------------------------------------
E|--------------------------------------------0-----1-----------1-----1-----1-----------------------------------------------------------------0-----1-----------1-----1-----1--

tabs and chords, guitar tabs, music transcription, music technology, deep learning, music information retrieval, transcribe into tabs & chords, chordify, music renditions, songsterr, reverbnation, tabulature, bollywood chords, ultimate guitar, yousician, guitar lessons, acoustic guitar, electric guitar, guitar tuner, 911 tabs