Ukulele Tabs for Uke Camp Songs In C

You are my sunshine

             C                                               F                       C                    F           
A|-----------------------------------------------------------------0--------0-----------------------------------0--
E|-----------0-----0--------0-----0-----------------------0--1-----------------3--1--0-----------------0--1--------
C|--0--0--2--------------------3-----0-----0--------0--2-----------------------------------------0--2--------------
G|-----------------------------------------------------------------------------------------------------------------
  you are my sunshine      my only  sun shine     you make me happy     when skies are gray,  you'll never know dear
  
             C                       C        G           C
A|--0--------------------------------------------------------
E|-----3--1--0-----------------------0-----1-----------------
C|-----------------0-----------0--2-----------2-----2--0--0--
G|-----------------------------------------------------------
   how much I love you,  please don't take my sunshine away



When the Saints Go Marching In

             C                                                           G                 C                       F
A|--------------------------------------------------------------------------------------------------------------------------
E|-----0--1--3-----------0--1--3-----------0--1--3-----0-----------0-----------------0--------------0-----3--3--3--1--------
C|--0-----------------0-----------------0--------------------0-----------2--------------2--0-----0--------------------------
G|--------------------------------------------------------------------------------------------------------------------------
 Oh when the saints  go marching in, oh when the saints go march  -ing  in,        oh I want    to be   in that number
 
             C           G           C
A|-----------------------------------------
E|--0--0--1--3-----0-----------------------
C|-----------------------0-----2-----0-----
G|-----------------------------------------
 oh when the saints go march -ing   in!
 
tabs and chords, guitar tabs, music contests, music covers, songsterr, reverbnation, renditions, tabulature, bollywood chords, ultimate guitar, yousician, guitar lessons, torrins, fender, gibson, acoustic guitar, electric guitar, youtube covers, gootar, guitar tuner, A-Z tabs, 911 tabs