Ukulele Tabs for Uke Camp Songs In F

Hot Cross Buns!

    F     C     F        F     C     F        F           C           F     C     F
A|-----------------------------------------------------------------------------------
E|--5-----3-----1--------5-----3-----1--------1--1--1--1--3--3--3--3--5-----3-----1--
C|-----------------------------------------------------------------------------------
G|-----------------------------------------------------------------------------------
   Hot cross buns!      hot cross buns!       1 a penny,  2 a penny,  hot cross buns!
   
   
Mary Had a Little Lamb

    F                       C           F           F                       C           F
A|-----------------------------------------3--3--------------------------------------------
E|--5--3--1--3--5--5--5-----3--3--3-----5-----------5--3--1--3--5--5--5--5--3--3--5--3--1--
C|-----------------------------------------------------------------------------------------
G|-----------------------------------------------------------------------------------------
 Mary had a little Lamb, little lamb, little lamb. Mary had a little lamb whose fleece was white as snow
 

Go Tell Aunt Rhody

    F                       C           F                                   C           F
A|--------------------------------------------------3-----3--1-----------------------------
E|--5-----5--3--1-----1-----3-----3-----5--3--1-----------------5-----5-----3--1--3--5--1--
C|-----------------------------------------------------------------------------------------
G|-----------------------------------------------------------------------------------------
    Go Tell Aunt Rho- dy,  Go    tell, Rho-o-dy,   Go tell Aunt Rho-dy,  Old gray goose is dead
tabs and chords, guitar tabs, music transcription, music technology, deep learning, music information retrieval, transcribe into tabs & chords, chordify, music renditions, songsterr, reverbnation, tabulature, bollywood chords, ultimate guitar, yousician, guitar lessons, acoustic guitar, electric guitar, guitar tuner, 911 tabs