Twinkle Little Star - Guitar Tabs

(/) Slide Up  (\) Slide Down  (h) Hammer On  (p) Pull Off  (b) Bend (r) Release (v) Vibrato (x) Muted

High E String
E|--0--0--7--7--9--9--7-----5--5--4--4--2--2--0-----
B|--------------------------------------------------
G|--------------------------------------------------
D|--------------------------------------------------
A|--------------------------------------------------
E|--------------------------------------------------

E|--7--7--5--5--4--4--2-----7--7--5--5--4--4--2-----
B|--------------------------------------------------
G|--------------------------------------------------
D|--------------------------------------------------
A|--------------------------------------------------
E|--------------------------------------------------

E|--0--0--7--7--9--9--7--5--5--4--4--2--2--0--
B|--------------------------------------------
G|--------------------------------------------
D|--------------------------------------------
A|--------------------------------------------
E|--------------------------------------------

Low E String
E|--------------------------------------------------
B|--------------------------------------------------
G|--------------------------------------------------
D|--------------------------------------------------
A|--------------------------------------------------
E|--0--0--7--7--9--9--7-----5--5--4--4--2--2--0-----

E|--------------------------------------------------
B|--------------------------------------------------
G|--------------------------------------------------
D|--------------------------------------------------
A|--------------------------------------------------
E|--7--7--5--5--4--4--2-----7--7--5--5--4--4--2-----

E|--------------------------------------------
B|--------------------------------------------
G|--------------------------------------------
D|--------------------------------------------
A|--------------------------------------------
E|--0--0--7--7--9--9--7--5--5--4--4--2--2--0--

About Twinkle Twinkle Little Star (film) : The lead pair in the film are Tinnu Anand and Divya Dutta . This is a fantasy film targeted at children . The film has lot of special effects . Twinkle Twinkle Little Star has the story revolving around a eunuch . The story revolves around a boy who she believes him as a Twinkle Twinkle Little Star movie based on the life of a child in a royal family . Chintu is found to have a non curable physical deformity and it is proclaimed that the child will grow as a eunuch .

tabs and chords, guitar tabs, music transcription, music technology, deep learning, music information retrieval, transcribe into tabs & chords, chordify, music renditions, songsterr, reverbnation, tabulature, bollywood chords, ultimate guitar, yousician, guitar lessons, acoustic guitar, electric guitar, guitar tuner, 911 tabs