Guitar Tabs for Twinkle Twinkle Little Star

(/) Slide Up  (\) Slide Down  (h) Hammer On  (p) Pull Off  (b) Bend (r) Release (v) Vibrato (x) Muted

Tabs for Song : 


E|--------------0--0--------------------------------------------------
B|--------3--3--------3-----1--1--0--0--------------3--3--1--1--0--0--
G|--0--0--------------------------------2--2--0-----------------------
D|--------------------------------------------------------------------
A|--------------------------------------------------------------------
E|--------------------------------------------------------------------


E|--------------------------------------0--0-----------------------------
B|--------3--3--1--1--0--0-----------3--------3-----1--1--0--0-----------
G|--2-----------------------2--0--0-----------------------------2--2--0--
D|-----------------------------------------------------------------------
A|-----------------------------------------------------------------------
E|-----------------------------------------------------------------------

Paste any tab in acousterr's tab maker and we'll play it !!!
Now supports capo and sound effects for vibrato/pull-off/hammer/bends/mutes etc !!! Checkout help section
tabs and chords, guitar tabs, music transcription, music technology, deep learning, music information retrieval, transcribe into tabs & chords, chordify, music renditions, songsterr, reverbnation, tabulature, bollywood chords, ultimate guitar, yousician, guitar lessons, acoustic guitar, electric guitar, guitar tuner, 911 tabs