Guitar Tabs for Tuyo

(/) Slide Up  (\) Slide Down  (h) Hammer On  (p) Pull Off  (b) Bend (r) Release (v) Vibrato (x) Muted

Tabs for Song : Tuyo- Rodrigo Amarante
BPM:350
parte 1 
E|--0--------------------------------1--0-----------------------------------------0--------------------------------------------------------1--1--0-----1--0-----------------0--------0----p
B|--1--4--3--1--0--------------------0-----3--1--0------0h-1p-0h-1p-0h-1p0--------1--4--3--1--0-----------------------------------------1-----0-----3------------------0h1-----1-----1--
G|--2--------------2--2--------1-----1--------------------------------------2-----2--------------2--2--------1-----1--2---2h4-----2--4--------1--------------------2--------------2--2--
D|--2-----------------3--3--------------------------------------------------------2-----------------3--3--------------------------------------------------------2--------------------2--
A|--0-----------------2-----2-----------------------0--------------------------0--------------------2-----2--------------------0-----------------------------0-----------------------0--
E|--------------------------------0-----------------------------------------------------------------------------0-----------------------------0-----------------------------------------

parte 2 
E|--0-----------------------------------------------------------------0--------------------------------------------------------------
B|-----3--1--0--------------------------------------------------------1--3--1--0-----------------------------------------------0--1--
G|--------------2--1--1--2---2/4-----1--2---2/4--1--4--2--2-----------2-----------2--1--1--2---2/4-----1--2---2h4--1--4--2--2--------
D|-----------------2--2--4---4/6-----------------------------2--------2--------------2--2--4---4/6-----------------------------------
A|-----------------------------------------------------0--------0--0-----------------------------------------------------0-----------
E|-----------------0--------------0--------------------------------------------------0--------------0--------------------------------
parte 3
E|-----------------------------------------------------------------------0--------------------------------------------------------
B|-----2--3---3/5--2--5--------5--6--------------------3-----3--1--1--3-----3--------------1-----1--0--1--3--1--3-----------0-----
G|-----0-----------------7--7--------------7--------4-----4-----0--------------0------1h2-----2-----1--------------------2-----2--
D|-----2-----------------7--------------7--------3--------------2-----------------------------------0-----------------2-----------
A|--0--------------------5-----------5--------------------------3--------------------------------------------------0--------------
E|--------------------------------------------3-----------------------------------1-----------------0-----------------------------

parte 4
E|--------------------------------------------1-----------1--------------------1--0--------------------------------------0--5--4--1--0-----------------0-----------------------------------------0--------------------------------------------------------------12--
B|-----------------------------------------1-----1--------1--0-----------------0-----3--1--0-----------------1--------1--------------------0--1--3-----1--4--3--1--0-----------------------------1--4--3--1--0-----------------------------------------------------
G|------------------------------------1h2-----------2-----2--1--1--2---2h4-----1------------------------1h2--------2-----------------------1-----------2--------------2-----------2--1--2--4-----2--------------2-----------2--1--2--4--2--------1-----1-----------
D|-----3--2--0--------------------1--------------------------0--------------------------------------1--------------------------------------0-----------2-----------------------1-----0-----------2-----------------------1-----0--------2-----2-----2--------------
A|--------------3--2--0--------3-----------------------------------------------------------------3--------------------------------------------------0-----------------------3-----------------0-----------------------3-----------------0--2-----------------------
E|-----------------------0--1--------------------------1-----0--------------0-----------------1-----------------1-----------------------0--------------------------------1-----------0-----------------------------1-----------0-----------------------------------
tabs and chords, guitar tabs, music transcription, music technology, deep learning, music information retrieval, transcribe into tabs & chords, chordify, music renditions, songsterr, reverbnation, tabulature, bollywood chords, ultimate guitar, yousician, guitar lessons, acoustic guitar, electric guitar, guitar tuner, 911 tabs