Guitar Tabs for Tumse Milna Baatein Karna - Tere Naam Tabs

(/) Slide Up  (\) Slide Down  (h) Hammer On  (p) Pull Off  (b) Bend (r) Release (v) Vibrato

Tabs for Song : Tumse Milna

Intro
E|--7--7-----------------------8--8--7--
B|--------8--8--------------------------
G|--------------7--7--8--9--9-----------
D|--------------------------------------
A|--------------------------------------
E|--------------------------------------

Intro
E|--------7--7-----------8--7--------7--7-----
B|--8--10-------8--8-----------10-10-------8--
G|--------------------7-----------------------
D|--------------------------------------------
A|--------------------------------------------
E|--------------------------------------------

Tum se milna baatein karna
E|-----7-----7--------------------------
B|--8-----10----10-8--8--10-8--10-8-----
G|-----------------------------------10-
D|--------------------------------------
A|--------------------------------------
E|--------------------------------------

Bada acha lagta hai
E|-----------------------------
B|--11-8--------------10-8--8--
G|--------10-8--8--10----------
D|-----------------------------
A|-----------------------------
E|-----------------------------

Kya hai yeh kyon hai yeh kya khabar
E|---8/11-10-10----11-10-10----11-10-10----
B|--------------12----------12----------12-
G|-----------------------------------------
D|-----------------------------------------
A|-----------------------------------------
E|-----------------------------------------

Hai magar jo bhi hai
E|--11-10-10----10----------
B|-----------13----13-12-10-
G|--------------------------
D|--------------------------
A|--------------------------
E|--------------------------

Bada acha lagta hai
E|-----------------------------
B|--11-8--------------10-8--8--
G|--------10-8--8--10----------
D|-----------------------------
A|-----------------------------
E|-----------------------------

Again Repeat Tumse Milna Baatein Karna....

Teri choti choti baat teri har ek mulaqat
E|--10-8--7--8---8/10-8--7--8--7-----7---7/8--7-----
B|--------------------------------10-------------10-
G|--------------------------------------------------
D|--------------------------------------------------
A|--------------------------------------------------
E|--------------------------------------------------

Tadpaye mujhko
E|--------------------------------
B|--10-10-10/11-11----8--11-8-----
G|-----------------------------8--
D|--------------------------------
A|--------------------------------
E|--------------------------------

lamha lamha tera saath lamha lamha tera saath
E|-----------------------------------------------------
B|--------------8--8--8--8-----------------8--8--8--8--
G|--7--7--9--9-----------------7--7--9--9--------------
D|-----------------------------------------------------
A|-----------------------------------------------------
E|-----------------------------------------------------

Again Repeat 
Kya hai yeh kyon hai yeh kya khabar hai magar jo bhi hai
Bada acha lagta hai Tum se milna baatein karna bada acha lagta hai(like before)
tabs and chords, guitar tabs, music transcription, music technology, deep learning, music information retrieval, transcribe into tabs & chords, chordify, music renditions, songsterr, reverbnation, tabulature, bollywood chords, ultimate guitar, yousician, guitar lessons, acoustic guitar, electric guitar, guitar tuner, 911 tabs