Guitar Tabs for Tum Hi Ho Theme

(/) Slide Up  (\) Slide Down  (h) Hammer On  (p) Pull Off  (b) Bend (r) Release (v) Vibrato (x) Muted

Tabs for Song :
A minor

Song lyrics here
E|-----------------------------------------
B|-----0--1-----0--1-----------------------
G|--2--------2-----------------------------
D|--------------------2---2h3--3--2--3-----
A|-----------------------------------------
E|-----------------------------------------

E|--------------------------------------
B|--------0-----------------------------
G|--0--2-----0--2-----------------------
D|--------------------3---3p2--2--0--2--
A|--------------------------------------
E|--------------------------------------

E|--------------------0--0-----------------
B|--------------------------3--3--1---1h3--
G|--------0--------0-----------------------
D|--2--3-----2--3--------------------------
A|-----------------------------------------
E|-----------------------------------------

E|--------------0--0--1--0--
B|--0--0--------------------
G|--------1--1--------------
D|--------------------------
A|--------------------------
E|--------------------------

E-monor
E|--------------------------------------
B|--------------------------------------
G|--------------------------------------
D|--2--4--5--2--4--5--------------------
A|--------------------2---2h3--3--2--3--
E|--------------------------------------

E|--------------------------------------
B|--------------------------------------
G|--------------------------------------
D|--0--2--4--0--2--4--------------------
A|--------------------3---3\2--0---0h2--
E|--------------------------------------

E|-----------------------------------------
B|--------------------0--0-----------------
G|--------------------------2--2--0---0h2--
D|--------0--------0-----------------------
A|--2--3-----2--3--------------------------
E|-----------------------------------------

E|--------------------------------
B|--------------0--0--1---0h1--0--
G|--------------------------------
D|--4--4--1--1--------------------
A|--------------------------------
E|--------------------------------

Song lyrics here
E|--
B|--
G|--
D|--
A|--
E|--

Paste any tab in acousterr's tab maker and we'll play it !!!
Now supports capo and sound effects for vibrato/pull-off/hammer/bends/mutes etc !!! Checkout help section
tabs and chords, guitar tabs, music transcription, music technology, deep learning, music information retrieval, transcribe into tabs & chords, chordify, music renditions, songsterr, reverbnation, tabulature, bollywood chords, ultimate guitar, yousician, guitar lessons, acoustic guitar, electric guitar, guitar tuner, 911 tabs