Tum Hi Ho Tab - Guitar Tabs

(/) Slide Up  (\) Slide Down  (h) Hammer On  (p) Pull Off  (b) Bend (r) Release (v) Vibrato (x) Muted

Tabs for Song : 
BPM : 200

Song lyrics here 

E|--------9--9-----------------9--9-----------------9--9-----------------9--9-----------
B|-----10-------10-12-10----10-------10-12-10----10-------10-12-10----10-------10-12-10-
G|--11-------------------11-------------------11-------------------11-------------------
D|--------------------------------------------------------------------------------------
A|--------------------------------------------------------------------------------------
E|--------------------------------------------------------------------------------------



E|--9--14-12-12-10-10-9--7--5--7--10-9---9/7--
B|--------------------------------------------
G|--------------------------------------------
D|--------------------------------------------
A|--------------------------------------------
E|--------------------------------------------


Song lyrics here 
E|--
B|--
G|--
D|--
A|--
E|--

Use manual mode to free up cursor. Paste any tab in acousterr tab maker and we'll play it !!!

About Tum Hi Ho : "Tum Hi Ho" (transl. You are the one) is a song from the Indian movie Aashiqui 2 . It was released by Bhushan Kumar under T-Series . The audio song was released on 16 March 2013 and received critical reception from critics as well as became very popular among the audiences . The music video was released The song received acclaim from critics . "Tum Hi Ho" and "Sunn Raha Hai" (both versions) are our favorites, but "Piya Aaye Na" end up as a close second . It was released in 2013. It was released as part of album Aashiqui 2. The genre is acoustic music , filmi , indian pop. The track was release in 2013. Tum Hi Ho has a significant contribution from artist(s) Arijit Singh,Mithoon,Bhushan Kumar. Its associated with movies - Aashiqui 2.

About Arijit Singh - Arijit Singh is an Indian playback singer . He sings predominantly in Hindi and Bengali . He has also performed in various Singh was discovered by filmmaker Sanjay Leela Bhansali and Kumar Taurani . Singh received widespread recognition with the release of "Tum Hi Ho" and "Chahun Main Ya Naa" in 2013 . Arijit Singh was born on 25 April 1987 in Jiaganj, Murshidabad, West Bengal . He studied at Raja Bijay Singh High School and later at the University of Kalyani affiliate . Arijit Singh's music is influenced by genre(s) - filmi pop edm ghazal indian classical.

About Aashiqui 2 (soundtrack) : Aashiqui 2 is the soundtrack to the 2013 Bollywood romance film of the same name . The album was produced by Bhushan Kumar and Mahesh Bhatt . The songs of the film were mostly composed by Jeet Gannguli, although Mithoon and Ankit Tiwari composed two songs each (including both versions) as guest composers . Arijit Singh sang six of the songs on the album . Mithoon recorded the song Tum Hi Ho two years before its original release . The song became the most popular listener's choice song of the year 2013 . It was released in 2013.

tabs and chords, guitar tabs, music transcription, music technology, deep learning, music information retrieval, transcribe into tabs & chords, chordify, music renditions, songsterr, reverbnation, tabulature, bollywood chords, ultimate guitar, yousician, guitar lessons, acoustic guitar, electric guitar, guitar tuner, 911 tabs