Guitar Tabs for Tum Hi Ho

(/) Slide Up  (\) Slide Down  (h) Hammer On  (p) Pull Off  (b) Bend (r) Release (v) Vibrato (x) Mute
Tabs for Song : 

Intro

E|--------------------------
B|--2--5--9--9--10-5--7--4--
G|--------------------------
D|--------------------------
A|--------------------------
E|--------------------------

E|--------------------------
B|--2--5--9--9--10-5--7--4--
G|--------------------------
D|--------------------------
A|--------------------------
E|--------------------------
Hum Tere Bin Ab Reh Nahi Sakte
E|--------------------------------------------
B|--9--14-12-12-10-10-9--7--5--7--10-9-----9--
G|--------------------------------------------
D|--------------------------------------------
A|--------------------------------------------
E|--------------------------------------------
Tere Bina Kya Wajood Mera
E|--------------------------------------
B|--7-----7--5--7-----7--5--4--2--0--2--
G|--------------------------------------
D|--------------------------------------
A|--------------------------------------
E|--------------------------------------
Tujhse Juda Gar Ho Jaayenge 
E|-----------------------------------------------
B|-----9--14-12-12-10-10-9--7--5--7--10-9-----9--
G|-----------------------------------------------
D|-----------------------------------------------
A|-----------------------------------------------
E|-----------------------------------------------
Toh Khud Se Hi Ho Jaayenge Judaa
E|--------------------------------------
B|--7-----7--5--7-----7--5--4--2--0--2--
G|--------------------------------------
D|--------------------------------------
A|--------------------------------------
E|--------------------------------------
Kyunki Tum Hi Ho
Ab Tum Hi Ho
Zindagi Ab Tum Hi Ho
E|---------------------------------------------------------------------
B|-----5--7--9-----5--7-----5--7--9-----5--7-----4--7--5-----4--2--4--0--2--
G|--------------------------------------------------------------------------
D|--------------------------------------------------------------------------
A|--------------------------------------------------------------------------
E|--------------------------------------------------------------------------
Mera Chain Bhi, Mera Dard Bhi
Meri Aashiqui Ab Tum Hi Ho
E|--------------------------------------------------------------------------
B|-----5--7--9-----5--7-----5--7--9-----5--7-----4--7--5-----4--2--4--0--2--
G|--------------------------------------------------------------------------
D|--------------------------------------------------------------------------
A|--------------------------------------------------------------------------
E|--------------------------------------------------------------------------

Paste any tab in acousterr's tab maker and we'll play it !!!
Now supports capo and sound effects for vibrato/pull-off/hammer/bends/mutes etc !!! Checkout help section
tabs and chords, guitar tabs, music transcription, music technology, deep learning, music information retrieval, transcribe into tabs & chords, chordify, music renditions, songsterr, reverbnation, tabulature, bollywood chords, ultimate guitar, yousician, guitar lessons, acoustic guitar, electric guitar, guitar tuner, 911 tabs