Guitar Tabs for Tum Hi Ho Interlude

(/) Slide Up  (\) Slide Down  (h) Hammer On  (p) Pull Off  (b) Bend (r) Release (v) Vibrato (x) Muted

Tabs for Song : CAPO FRET 1

Song lyrics here
E|--------0-----2---2h3--------------------------------0--------------------
B|--0-----------------------1--0--1--------------3-----------1-----0-----0--
G|-----------------------------------------2--------------------------2-----
D|--------------------------------------------------------------------------
A|--------------------------------------------------------------------------
E|--------------------------------------------------------------------------

E|--------------------10-----8--7--8--------8--8----------8---8--7--7--
B|--------1-----3-----------------------------------8--7-----------------
G|-----------------------------------------------------------------------
D|--4--------------------------------------------------------------------
A|-----------------------------------------------------------------------
E|-----------------------------------------------------------------------

Song lyrics here
E|--
B|--
G|--
D|--
A|--
E|--

Paste any tab in acousterr's tab maker and we'll play it !!!
Now supports capo and sound effects for vibrato/pull-off/hammer/bends/mutes etc !!! Checkout help section
tabs and chords, guitar tabs, music transcription, music technology, deep learning, music information retrieval, transcribe into tabs & chords, chordify, music renditions, songsterr, reverbnation, tabulature, bollywood chords, ultimate guitar, yousician, guitar lessons, acoustic guitar, electric guitar, guitar tuner, 911 tabs