Guitar Tabs for Tujhse Naaraz Nahi Hai Zindagi

(/) Slide Up  (\) Slide Down  (h) Hammer On  (p) Pull Off  (b) Bend (r) Release (v) Vibrato (x) Muted

Tabs for Song : 

composded in Am scale.. 

tujhse naaraz nahi  zindagi
E|--------7-----7-----------------------------------------
B|--8--10----10----10-8--8-----8--10-8--------------------
G|--------------------------------------9-----9--7--9--7--
D|--------------------------------------------------------
A|--------------------------------------------------------
E|--------------------------------------------------------
    hairan hu mai
E|-----------------
B|-----------------
G|-----9--7--9--9--
D|--10-------------
A|-----------------
E|-----------------
o o o hairan hu mai
E|--------------------------
B|--------------------------
G|--9-----------9--7--7--7--
D|-----10----10-------------
A|--------------------------
E|--------------------------
tere maasum sawalon se 
E|--------7-----7-----------------------------------------
B|--8--10----10----10-8--8-----8--10-8--------------------
G|--------------------------------------9-----9--7--9--7--
D|--------------------------------------------------------
A|--------------------------------------------------------
E|--------------------------------------------------------
pareshaan hu mai
E|-----------------
B|-----------------
G|-----9--7--9--9--
D|--10-------------
A|-----------------
E|-----------------


   ooooo pareshaan hu mai
E|--8-----8--7-----7--------------
B|--------------10----10-8--8--8--
G|--------------------------------
D|--------------------------------
A|--------------------------------
E|--------------------------------
   jeene k liye,  soocha hi nahi  
E|--7--8--10-8--7-----7--8--12-8--7--7-----
B|--------------------------------------10-
G|-----------------------------------------
D|-----------------------------------------
A|-----------------------------------------
E|-----------------------------------------
    dard samhalne honge
E|--------------7-----------
B|--10-10-10-10----10----8--
G|--------------------9-----
D|--------------------------
A|--------------------------
E|--------------------------
      muskuraye toh, muskurane kkkkk..
E|--7--8--10-8--7-----7--8--12v---------------
B|--------------------------------13----12-10-
G|--------------------------------------------
D|--------------------------------------------
A|--------------------------------------------
E|--------------------------------------------
    karz utarne honge....
E|--------------------------
B|--10-10-10-10-12-8-----8--
G|--------------------9-----
D|--------------------------
A|--------------------------
E|--------------------------
     oo muskuraun bhi toh ab  
E|-----7-----7-----------------
B|--10----10----10-10-10-10-10-
G|-----------------------------
D|-----------------------------
A|-----------------------------
E|-----------------------------
lagta hai jaise

E|--7--10-7--------------
B|-----------10-10-10-7--
G|-----------------------
D|-----------------------
A|-----------------------
E|-----------------------
    hontho pe karz rakha hai...
E|-----------------------------
B|--7--10-7-----7--7---7h8--8--
G|-----------9-----------------
D|-----------------------------
A|-----------------------------
E|-----------------------------

repeat..............
tabs and chords, guitar tabs, music transcription, music technology, deep learning, music information retrieval, transcribe into tabs & chords, chordify, music renditions, songsterr, reverbnation, tabulature, bollywood chords, ultimate guitar, yousician, guitar lessons, acoustic guitar, electric guitar, guitar tuner, 911 tabs