Guitar Tabs for Tujhe Sochta Hoon - Jannat 2 Tabs

(/) Slide Up  (\) Slide Down  (h) Hammer On  (p) Pull Off  (b) Bend (r) Release (v) Vibrato (x) Muted

Tabs for Song : Tujhe Sochta Hoon

Tujhe Sochta Hoon main shaam o subah
E|-----------------------------------
B|--6--8--6--------------------6-----
G|-----------8--7--5-----7--8-----7--
D|--------------------8--------------
A|-----------------------------------
E|-----------------------------------

Iss se zyada tujhe aur chahoon toh kya
E|--------------------------------------
B|--------------6-----------------------
G|--5-----7--8-----7--5-----5-----------
D|-----8-----------------8-----8--6--5--
A|--------------------------------------
E|--------------------------------------

Tere hi khayalon mein dooba raha
E|-----------------------------------
B|--6--8--6--------------------6-----
G|-----------8--7--5-----7--8-----7--
D|--------------------8--------------
A|-----------------------------------
E|-----------------------------------

Iss se zyada tujhe aur chahoon toh kya
E|--------------------------------------
B|--------------6-----------------------
G|--5-----7--8-----7--5-----5-----------
D|-----8-----------------8-----8--6--5--
A|--------------------------------------
E|--------------------------------------

Bas saare gham mein jaana, sang hoon tere
E|--------------------------------------------------
B|--------------------------------------------------
G|--5--5--7--5--7--5--8--7--5--5--5--7--8--7--5-----
D|-----------------------------------------------8--
A|--------------------------------------------------
E|--------------------------------------------------

Har ek mausam me jaana, sang hoon tere
E|--------------------------------------------------------
B|--------------------------------------------------------
G|--------5-----5-----7--5-----7--7--8--5--8--7--5--------
D|--8--8-----8-----8--------8-----------------------8--6--
A|--------------------------------------------------------
E|--------------------------------------------------------

Ab itne imtehaan bhi na le mere
E|--------------------------------------------------------
B|-----------------------------------6--------6-----------
G|--------------------------------------7--7-----8--7--5--
D|--6--6--8--6--8--6--8--6--5--5--5-----------------------
A|--------------------------------------------------------
E|--------------------------------------------------------

Again Repeat Previous One.
tabs and chords, guitar tabs, music contests, music covers, songsterr, reverbnation, renditions, tabulature, bollywood chords, ultimate guitar, yousician, guitar lessons, torrins, fender, gibson, acoustic guitar, electric guitar, youtube covers, gootar, guitar tuner, A-Z tabs, 911 tabs