Guitar Tabs for Sochta Hoon Ke Woh Kitne Masoom The - Junaid Asghar Tabs

(/) Slide Up  (\) Slide Down  (h) Hammer On  (p) Pull Off  (b) Bend (r) Release (v) Vibrato

Tabs for Song : Sochta Hoon Ke Woh Kitne Masoom The

Sochta hoon ke woh kitne masoom the
E|--------------------------------------------
B|--------9--9--9--9-----9--11-7--9--11-11-11-
G|--11-8--------------------------------------
D|--------------------------------------------
A|--------------------------------------------
E|--------------------------------------------

Kya se kya ho gaye dekhte dekhte
E|-----------------9--9--11-11-------------
B|--9--11-12-12-12-------------11-11-9--9--
G|-----------------------------------------
D|-----------------------------------------
A|-----------------------------------------
E|-----------------------------------------

Sochta hoon ke woh kitne masoom the
E|--9--9--11-11-11-11----11-13----9--13-13-13-
B|-----------------------------12-------------
G|--------------------------------------------
D|--------------------------------------------
A|--------------------------------------------
E|--------------------------------------------


Kya se kya ho gaye dekhte dekhte
E|--11-13-13-14-14-13-9-----14-11-------------
B|--------------------------------12-11-------
G|--------------------------------------11-13-
D|--------------------------------------------
A|--------------------------------------------
E|--------------------------------------------

Again Repeat 1st Part.
tabs and chords, guitar tabs, music transcription, music technology, deep learning, music information retrieval, transcribe into tabs & chords, chordify, music renditions, songsterr, reverbnation, tabulature, bollywood chords, ultimate guitar, yousician, guitar lessons, acoustic guitar, electric guitar, guitar tuner, 911 tabs