Guitar Tabs for Tujhe Kitna Chahne Lage Guitar Lead By Musical G

(/) Slide Up  (\) Slide Down  (h) Hammer On  (p) Pull Off  (b) Bend (r) Release (v) Vibrato (x) Muted

Tabs for Song : 
BPM : 200

Entro
E|--------2--------2-----------------0-----------------2--------2--------------0-----------
B|-----5-----5--------5-----------3-----3-----------5-----5--------5--------3-----3--------
G|--2--------------------------2-----------------2-----------------------2-----------------
D|-----------------------------------------------------------------------------------------
A|-----------------------------------------------------------------------------------------
E|-----------------------------------------------------------------------------------------
Entro
E|--------2-----2---2/4--------2--4---4/6------6/7-----6-----4--
B|--5--------5--------------------------------------------------
G|--------------------------------------------------------------
D|--------------------------------------------------------------
A|--------------------------------------------------------------
E|--------------------------------------------------------------

Dill ka dariyaa..Beh Hi Gaya
E|--------------------------------------------------------
B|--5-----4--2------2/4---------------2h4-----------------
G|--------------4---------------3/4--------4--4-----------
D|--------------------------------------------------------
A|--------------------------------------------------------
E|--------------------------------------------------------
Ishq Ibaadat.. bann hi gaya..
E|--2-----2-----2--2--------------------------------------------
B|-----------------------0-----0---------0/2---4h5--2--2--------
G|--------------------------------------------------------------
D|--------------------------------------------------------------
A|--------------------------------------------------------------
E|--------------------------------------------------------------
Khud Ko mujhe.. Tu soump de
E|-----------------------------------------------------
B|--5--4---4\2------2/4---------------2h4--------------
G|--------------4---------------3/4--------4--4--------
D|-----------------------------------------------------
A|-----------------------------------------------------
E|-----------------------------------------------------
Meri zaroorat..Tu bann gaya..
E|--2-----2-----2--2-----------------------------------------------------
B|-----------------------0-----0------0/2---4h5--2--2--------------------
G|--------------------------------------------------------4---3/1--------
D|-----------------------------------------------------------------4-----
A|-----------------------------------------------------------------------
E|-----------------------------------------------------------------------
Baat dill ki..Nazro ne ki..
E|-----------2--4---2/4--------6--6---2/4--2--2--------
B|--4-----5--------------------------------------------
G|-----------------------------------------------------
D|-----------------------------------------------------
A|-----------------------------------------------------
E|-----------------------------------------------------
Sach Keh Raha..Teri Qasam...
E|--2---------------------0/4--2-----------------------------
B|------5/4--2---2/5-----------------5--4------5\4--2--------
G|-----------------------------------------------------------
D|-----------------------------------------------------------
A|-----------------------------------------------------------
E|-----------------------------------------------------------
Tere bin ab na lenge ek bhi dum..
E|-----------------------------------------------------------------------
B|-----2---2/-4/-5\4-----2-----------2------5\4--2--2--2--2--------------
G|--4-----------------------4-----4--------------------------------------
D|-----------------------------------------------------------------------
A|-----------------------------------------------------------------------
E|-----------------------------------------------------------------------
Tujhe kitna chahne lage hum...
E|-----------------------------------------------------------------
B|-----2--4------4/-5\4-----2--------2--2---5\4--2-----------------
G|--4--------------------------4--------------------4-----4--------
D|-----------------------------------------------------------------
A|-----------------------------------------------------------------
E|-----------------------------------------------------------------
Solo (1)
E|--------------2--4--------2--4--5--4--2--------------------------
B|-----2--4--5-----------------------------5--4--2-----2--4--------
G|--4-----------------------------------------------4--------------
D|-----------------------------------------------------------------
A|-----------------------------------------------------------------
E|-----------------------------------------------------------------
Solo (2)
E|--------------------------------2--4--6--4--2--4--6---6/7---7/9--7--6--7--6-----
B|--2-----4--5--4--5-----4--5-----------------------------------------------------
G|--------------------------------------------------------------------------------
D|--------------------------------------------------------------------------------
A|--------------------------------------------------------------------------------
E|--------------------------------------------------------------------------------
Solo (3)
E|--6--6--6--6---6/7--7---7/9--9------9/11-11/12----11-9--7--6--4--2-----------------------------
B|--------------------------------------------------------------------5--4-----2--------0--------
G|-----------------------------------------------------------------------------------------------
D|-----------------------------------------------------------------------------------------------
A|-----------------------------------------------------------------------------------------------
E|-----------------------------------------------------------------------------------------------
Iss jaga aagai..chaahate ab meri
E|--------------------------------------------------------------
B|--------4--4-----2--------------------4--4-----2------4\2-----
G|--------------------4--4--------------------------4-----------
D|--4--4--------------------------4-----------------------------
A|--------------------------------------------------------------
E|--------------------------------------------------------------
chheenk=lunga tumhe saari duniya se hi
E|-----2---2\0-----0--------------------------------------------
B|-----------------------4--2-----2--4---2/4--4--2--------------
G|--4-----------------------------------------------4--4--------
D|--------------------------------------------------------------
A|--------------------------------------------------------------
E|--------------------------------------------------------------
Tere ishq pe haan..haqq mera hi to hai
E|--------------------------------------------------------------------
B|-----------4--4-----2--------------------4---4h5--2------4\2--------
G|--------------------------4--4-----------------------4--------------
D|--4-----4-----------------------------4-----------------------------
A|--------------------------------------------------------------------
E|--------------------------------------------------------------------
Keh diya hai ye maine mere rab se bhi
E|-----2--2-----7--6--6--------------------------------
B|--------------------------2--4---2/4---4h5--2--------
G|--4--------------------------------------------4--4--
D|-----------------------------------------------------
A|-----------------------------------------------------
E|-----------------------------------------------------
jiss raaste..tu na mile
E|--------2-----4---2/4---------7\6---2/4--2--2--------
B|--4--5-----------------------------------------------
G|-----------------------------------------------------
D|-----------------------------------------------------
A|-----------------------------------------------------
E|-----------------------------------------------------
uss pe na ho..mere qadam...
E|--2---------------------------0/-2/4-----2--------------------------------
B|-----5---5/4--2---2/5--------------------------5---4/7-----5--4--2--------
G|--------------------------------------------------------------------------
D|--------------------------------------------------------------------------
A|--------------------------------------------------------------------------
E|--------------------------------------------------------------------------
Tere bin ab na lenge ek bhi dum
E|-----------------------------------------------------------
B|-----2---2/4-----2-----------2------5\4--2--2--2--2--------
G|--4-----------------4-----4--------------------------------
D|-----------------------------------------------------------
A|-----------------------------------------------------------
E|-----------------------------------------------------------
tujhe kitna chahne lage hum
E|--------------------------------------------------------------
B|-----2--4------4h5-----2--------2--2---5\4--2-----------------
G|--4-----------------------4--------------------4-----4--------
D|--------------------------------------------------------------
A|--------------------------------------------------------------
E|--------------------------------------------------------------
Tere saath ho jaayenge khatam
E|--------------------------------------------------------------------------
B|-----2---2/4--2--------2------5\4---0/2--2--2--4---2/4-----2--------------
G|--4--------------4--------------------------------------------4--3--1-----
D|--------------------------------------------------------------------------
A|--------------------------------------------------------------------------
E|--------------------------------------------------------------------------
Tujhe kitna chahne lage hum
E|--------------------------2--------------------------------
B|-----2--4---4h5--2-----------2---4h5--2--------------------
G|--4-----------------4--------------------4-----4-----------
D|-----------------------------------------------------------
A|-----------------------------------------------------------
E|-----------------------------------------------------------
Tujhe kitna chahne lage hum..
E|--------------------------------2-----------------------------
B|-----2--4------4h5--2--------------2---4h5--2-----------------
G|--4--------------------4-----------------------4-----4--------
D|--------------------------------------------------------------
A|--------------------------------------------------------------
E|--------------------------------------------------------------
oooo..ooo..ooo
E|--2---4\2--------------------2---4\2-----------------
B|--------------4--2--------------------4--2--4--------
G|--------------------4--------------------------------
D|-----------------------------------------------------
A|-----------------------------------------------------
E|-----------------------------------------------------
E|--2---4\2--------------------------------------------
B|-----------4--2-----------------2-----2--4--2--4--5--
G|-----------------4--------4--4-----4-----------------
D|-----------------------------------------------------
A|-----------------------------------------------------
E|-----------------------------------------------------
ooooo..oooo..ooooooo
E|--4--5--4--5------4\2--------------------2---4\2-----------------2---4\2-----------------
B|--------------------------4--2--------------------4--2--4--------------------4--2--------
G|--------------------------------4--------------------------------------------------4-----
D|-----------------------------------------------------------------------------------------
A|-----------------------------------------------------------------------------------------
E|--------------------------------------------------------------------------
ooo..ooo..oo Tujhe Kitna Chahne lage hum.
E|-----------------------------------2--------------------------2--------------------------
B|--------2-----2--4--2--4--5--4--5--------2--4---4h5--2-----------2---4h5--2--------------
G|--4--4-----4--------------------------4-----------------4--------------------4-----4-----
D|-----------------------------------------------------------------------------------------
A|-----------------------------------------------------------------------------------------
E|------------------------------------------------------------------------------------------

Use manual mode to free up cursor. Paste any tab in acousterr tab maker and we'll play it !!!
tabs and chords, guitar tabs, music transcription, music technology, deep learning, music information retrieval, transcribe into tabs & chords, chordify, music renditions, songsterr, reverbnation, tabulature, bollywood chords, ultimate guitar, yousician, guitar lessons, acoustic guitar, electric guitar, guitar tuner, 911 tabs