Guitar Tabs for Tu Zaroori - Zid Tabs

(/) Slide Up  (\) Slide Down  (h) Hammer On  (p) Pull Off  (b) Bend (r) Release (v) Vibrato

Tabs for Song : Tu Zaroori

Aisa laga mujhe pehli dafaa
E|-----------11-9--------------------
B|---5/7--9--------12-11----9--11-9--
G|-----------------------11----------
D|-----------------------------------
A|-----------------------------------
E|-----------------------------------

Tanha main ho gayi yaara
E|-----------11-9--------------
B|---5/7--9--------12-11----9--
G|-----------------------11----
D|-----------------------------
A|-----------------------------
E|-----------------------------

Hoon pareshan si main
E|-----------9-----9-----------
B|--9--11-12----12----12-11-11-
G|-----------------------------
D|-----------------------------
A|-----------------------------
E|-----------------------------

Ab ye kehne ke liye
E|-----------9-----11-9--------
B|--9--11-12----12-------12-11-
G|-----------------------------
D|-----------------------------
A|-----------------------------
E|-----------------------------

Tu zaroori sa hai mujhko
E|-----------------------------------9--------
B|--11-11----11/12\11-9-----9--9--11----11----
G|-----------------------------------------11-
D|--------------------------------------------
A|--------------------------------------------
E|--------------------------------------------

zinda rehne ke liye Ho
E|--------------------------------
B|--------12-9-----9--9--9-----11-
G|--11-11-------9-----------------
D|--------------------------------
A|--------------------------------
E|--------------------------------

Again Repeat Previous Part.
tabs and chords, guitar tabs, music contests, music covers, songsterr, reverbnation, renditions, tabulature, bollywood chords, ultimate guitar, yousician, guitar lessons, torrins, fender, gibson, acoustic guitar, electric guitar, youtube covers, gootar, guitar tuner, A-Z tabs, 911 tabs