Guitar Tabs for Tu Pyar Hai Kisi Aur Ka - Kumar Sanu Tabs

(/) Slide Up  (\) Slide Down  (h) Hammer On  (p) Pull Off  (b) Bend (r) Release (v) Vibrato

Tabs for Song : Tu Pyar Hai Kisi Aur Ka

Tu Pyaar Hai Kisi Aur Kaa
E|-----------------------8-----------------
B|--------8-----10-10/11----10-10/11-11-11-
G|--7--7-----------------------------------
D|-----------------------------------------
A|-----------------------------------------
E|-----------------------------------------

Tujhe Chahta Koi Aur Hai
E|--------------------------------8-----------------
B|--11-10--8/10\-8\6-----6---8/10----11-10-8--8--8--
G|--------------------------------------------------
D|--------------------------------------------------
A|--------------------------------------------------
E|--------------------------------------------------

Tu Pasand Hain Kisee Aaur Kee
E|--10-10-10----11-11/13-8--8--11-10-10-10-
B|-----------------------------------------
G|-----------------------------------------
D|-----------------------------------------
A|-----------------------------------------
E|-----------------------------------------

Tujhe Maangata Koi Aaur Hai
E|--10-8--11-10-8--------------8--------------
B|-----------------11-10-10-10----11-10-8--8--
G|--------------------------------------------
D|--------------------------------------------
A|--------------------------------------------
E|--------------------------------------------

Again Repeat Part 1...
tabs and chords, guitar tabs, music transcription, music technology, deep learning, music information retrieval, transcribe into tabs & chords, chordify, music renditions, songsterr, reverbnation, tabulature, bollywood chords, ultimate guitar, yousician, guitar lessons, acoustic guitar, electric guitar, guitar tuner, 911 tabs