Guitar Tabs for Tu Mila To Hai Na(de De Pyar De)

(/) Slide Up  (\) Slide Down  (h) Hammer On  (p) Pull Off  (b) Bend (r) Release (v) Vibrato (x) Muted

Tabs for Song : TU MILA TO HAI NA:DE DE PYAR DE.

BPM : 123

Maine khwabon mein tumhara ,noor dekha hai
Dil ne bhi tumko kahin to zarur dekh hai...

E|--------------------------------------------------------------------------------------------------------
B|---------------------------------------------------------------------------------------3h4--3-----------
G|-----3---3/5--3-----3---3/5--3--------3-----------------3---3/5--3-----3---3/5--3--------------5--3--3--
D|--3--------------5---------------3/5-----5--3--3-----3--------------5--------------5--------------------
A|--------------------------------------------------------------------------------------------------------
E|--------------------------------------------------------------------------------------------------------

Main roz tera chera sunehra,aankho mein leke jaga
kya jaanta tha ,tu bhi tha mera ab jo mila to laga...
E|-----------------------------------------------------------------------------------------------------------------------------
B|--------6--4--3-----------6--4--3-----------6--4--3--------------------6--4--3-----------6--4--3-----------6--4--3-----------
G|--3--3--------------3--3--------------3--3-----------3---5/7-----3--3--------------3--3--------------3--3-----------3---5/7--
D|-----------------------------------------------------------------------------------------------------------------------------
A|-----------------------------------------------------------------------------------------------------------------------------
E|-----------------------------------------------------------------------------------------------------------------------------

Der se hi sahi magar tu mila,mila to hai na
dheere dheere sahi magar fasla,mita to hai na...

E|-----------------------------------------------------------------------------------------------------
B|--3--6--3-----------------------------------------3--6--3------------------------------3h4--3--------
G|-----------3-----3--5--3------------------3/5--3-----------3-----3--5--3-----------------------5--3--
D|--------------5-----------5--3--5--3--3-----------------------5-----------5--3--5--5-----------------
A|-----------------------------------------------------------------------------------------------------
E|-----------------------------------------------------------------------------------------------------


E|-----------------------------------------------------------3--------------------------------------------------
B|--3--6--3-----------------------------------------3--3--6-----6---------------------------3h4--3--------------
G|-----------3-----3--5--3-----------------3---3/5--------------------3--5--3-----------------------5--3---5/7--
D|--------------5-----------5--3--5--3--3--------------------------5-----------5--3--5--5-----------------------
A|--------------------------------------------------------------------------------------------------------------
E|--------------------------------------------------------------------------------------------------------------

Thujhse kisi bhi bahane main roz milta rahoon
khudko bhi main jaan lunga jo main tujhe jaan loon...
E|------------------------------------------------------------------------------------------------------------------------------------------------------
B|-----------------------------------------------------------------------------------------------------------------------------------------------------
G|--2/3--2--3---3/5--3-----------------------------------------------------2/3--2--3---3/5--3------------------------------------------3/5---5h7--3--
D|-------------------------5---3/5--3---3h1----1--0--1---3/5--3--------------------------------5---3/5--3---3h1--1--0--1---3/5--3-----------------------
A|---------------------------------------------------------------6---5/8-----------------------------------------------------------6---------------------
E|-------------------------------------------------------------------------------------------------------------------------------------------------------

Tu jo dikhaye,dekhe nigaahein tu jo sunaaye,sunoon
saason ki hai kisi zarurat ,tere bharose jiyun....

E|-----------------------------------------------------------------------------------------------------------------------------
B|--------6--4--3-----------6--4--3-----------6--4--3--------------------6--4--3-----------6--4--3-----------6--4--3-----------
G|--3--3--------------3--3--------------3--3-----------3---5/7-----3--3--------------3--3--------------3--3-----------3---5/7--
D|-----------------------------------------------------------------------------------------------------------------------------
A|-----------------------------------------------------------------------------------------------------------------------------
E|-----------------------------------------------------------------------------------------------------------------------------Der se hi sahi magar tu mila,mila to hai na

Der se hi sahi magar tu mila,mila to hai na..
dheere dheere sahi magar fasla,mita to hai na...

E|-----------------------------------------------------------------------------------------------------
B|--3--6--3-----------------------------------------3--6--3------------------------------3h4--3--------
G|-----------3-----3--5--3------------------3/5--3-----------3-----3--5--3-----------------------5--3--
D|--------------5-----------5--3--5--3--3-----------------------5-----------5--3--5--5-----------------
A|-----------------------------------------------------------------------------------------------------
E|-----------------------------------------------------------------------------------------------------


E|-----------------------------------------------------------3--------------------------------------------------
B|--3--6--3-----------------------------------------3--3--6-----6---------------------------3h4--3--------------
G|-----------3-----3--5--3-----------------3---3/5--------------------3--5--3-----------------------5--3---5/7--
D|--------------5-----------5--3--5--3--3--------------------------5-----------5--3--5--5-----------------------
A|--------------------------------------------------------------------------------------------------------------
E|--------------------------------------------------------------------------------------------------------------
tabs and chords, guitar tabs, music transcription, music technology, deep learning, music information retrieval, transcribe into tabs & chords, chordify, music renditions, songsterr, reverbnation, tabulature, bollywood chords, ultimate guitar, yousician, guitar lessons, acoustic guitar, electric guitar, guitar tuner, 911 tabs