Guitar Tabs for Tu Hi Hai Aashiqui - Arijit Singh Tabs

(/) Slide Up  (\) Slide Down  (h) Hammer On  (p) Pull Off  (b) Bend (r) Release (v) Vibrato (x) Muted

Tabs for Song : Tu Hi Hai Aashiqui

Intro
E|--------------------------------------------------------------------------
B|--13-12-10----10-13-13-12-10----10-13-13-12-10----10-13-13-12-10----10-13-
G|-----------12----------------12----------------12----------------12-------
D|--------------------------------------------------------------------------
A|--------------------------------------------------------------------------
E|--------------------------------------------------------------------------

Tu hi hai aashiqui Tu hi awaaragi
E|--------------------------------------------------
B|--12-13-12-13-13-12-10----10-12-10-12-12-10-------
G|-----------------------12-------------------12-10-
D|--------------------------------------------------
A|--------------------------------------------------
E|--------------------------------------------------

Tu hi hai zindagi Tu hi judaa
E|--------------------------------
B|-----10----10-10-12-13-12-10-10-
G|--12----12----------------------
D|--------------------------------
A|--------------------------------
E|--------------------------------

Tu ibtedaa meri Tu intehaa meri
E|--------------------------------------------------
B|--12-13-12-13-13-12-10----10-12-10-12-12-10-------
G|-----------------------12-------------------12-10-
D|--------------------------------------------------
A|--------------------------------------------------
E|--------------------------------------------------

Tu hi mera jahaan Tu hi judaa
E|--------------------------------
B|-----10----10-10-12-13-12-10-10-
G|--12----12----------------------
D|--------------------------------
A|--------------------------------
E|--------------------------------

Tu mere rubaroo Har shay mein tu hi tu
E|--10-12-10-12-12-13-12----10----10-10-12-10-
B|-----------------------13----13-------------
G|--------------------------------------------
D|--------------------------------------------
A|--------------------------------------------
E|--------------------------------------------

Tu pehli aarzoo Tu hi judaa
E|-----------------10-------------
B|--12-13-12-13-13----13-10-13-12-
G|--------------------------------
D|--------------------------------
A|--------------------------------
E|--------------------------------

Tu hi hai aashiqui Tu hi awaaragi
E|--------------------------------------------------
B|--12-13-12-13-13-12-10----10-12-10-12-12-10-------
G|-----------------------12-------------------12-10-
D|--------------------------------------------------
A|--------------------------------------------------
E|--------------------------------------------------

Tu hi hai zindagi Tu hi judaa
E|--------------------------------
B|-----10----10-10-12-13-12-10-10-
G|--12----12----------------------
D|--------------------------------
A|--------------------------------
E|--------------------------------
tabs and chords, guitar tabs, music contests, music covers, songsterr, reverbnation, renditions, tabulature, bollywood chords, ultimate guitar, yousician, guitar lessons, torrins, fender, gibson, acoustic guitar, electric guitar, youtube covers, gootar, guitar tuner, A-Z tabs, 911 tabs