Guitar Tabs for Treat You Better

(/) Slide Up  (\) Slide Down  (h) Hammer On  (p) Pull Off  (b) Bend (r) Release (v) Vibrato (x) Muted

Tabs for Song : Treat you better 

Song lyrics here
E|--1-----------------------------------1--1--------------------------------------------------
B|--------2--4-----2--2-----------2--4-----------2-----4--------2--2-----------------2--2--2--
G|--------------------------------------------------------------------------------------------
D|--------------------------------------------------------------------------------------------
A|--------------------------------------------------------------------------------------------
E|--------------------------------------------------------------------------------------------

E|-----1--1--1--4--------------------1--------------------------------1--1--------------------
B|--4--------------2--2-----4--4--4-----4--2--2-----2--2--2--2--2--4--------------2--2--------
G|--------------------------------------------------------------------------------------------
D|--------------------------------------------------------------------------------------------
A|--------------------------------------------------------------------------------------------
E|--------------------------------------------------------------------------------------------

E|-----1--1--1--4-----------------1--------------------------------1--1-----------------------
B|--4--------------2--2-----4--4-----4--2--2-----2--2--2--2--2--4--------------2--2--2--2-----
G|--------------------------------------------------------------------------------------------
D|--------------------------------------------------------------------------------------------
A|--------------------------------------------------------------------------------------------
E|--------------------------------------------------------------------------------------------

E|--------1--------------------------------------------------------------------1--------------
B|--2--------------1-----2--------------2--4--2--------2--2--2--2--2-----2--------------------
G|--------------------------------------------------------------------------------------------
D|--------------------------------------------------------------------------------------------
A|--------------------------------------------------------------------------------------------
E|--------------------------------------------------------------------------------------------

E|--------------------------------------------------1-----------------1-----------------------
B|--1-----2-----2--4--2--------2--2--2--2--2-----4-----4--2--2--2--4-----4-----2--2--2--------
G|--------------------------------------------------------------------------------------------
D|--------------------------------------------------------------------------------------------
A|--------------------------------------------------------------------------------------------
E|--------------------------------------------------------------------------------------------

E|-----------1--1--------------------------1-----------------4--2--1--2--1-----1--------------
B|--2--2--2-----------------2--2--2--2--2--------1-----2--------------------------------2--4--
G|--------------------------------------------------------------------------------------------
D|--------------------------------------------------------------------------------------------
A|--------------------------------------------------------------------------------------------
E|--------------------------------------------------------------------------------------------

E|--------------------------1-----1-----------------------------1-----1--1--1--4--------------
B|--2--2-----------2--2--4-----------2-----4-----2--2-----------------------------2--2--------
G|--------------------------------------------------------------------------------------------
D|--------------------------------------------------------------------------------------------
A|--------------------------------------------------------------------------------------------
E|--------------------------------------------------------------------------------------------

E|-----------1-----------------------------1--1--------------------1--1--------------1--1--1--4--
B|--4--4--4-----4--2-----2--2--2--2--2--4--------------2--2-----4-----------2--2--4--------------
G|-----------------------------------------------------------------------------------------------
D|-----------------------------------------------------------------------------------------------
A|-----------------------------------------------------------------------------------------------
E|-----------------------------------------------------------------------------------------------

E|-----------------1-----------------------------1--1-----------------------------------1-----
B|--2--4-----2--4-----4--2-----2--2--2--2--2--4-----------------2--2--2--2--2-----2-----------
G|--------------------------------------------------------------------------------------------
D|--------------------------------------------------------------------------------------------
A|--------------------------------------------------------------------------------------------
E|--------------------------------------------------------------------------------------------

E|-----------------------------------------------1--------------------------------------------
B|--1--2-----2--4--2--------2--2--2--2--2-----2--------1--2-----2--4--2--------2--2--2--2--2--
G|--------------------------------------------------------------------------------------------
D|--------------------------------------------------------------------------------------------
A|--------------------------------------------------------------------------------------------
E|--------------------------------------------------------------------------------------------

E|-----1-----------------1-----------------------------1--1--------------------------------1--
B|--4-----4--2--2--2--4-----4--2--2--2-----2--2-----2-----------------2--2--2--2-----2--------
G|--------------------------------------------------------------------------------------------
D|--------------------------------------------------------------------------------------------
A|--------------------------------------------------------------------------------------------
E|--------------------------------------------------------------------------------------------

E|--------4--2--1--2--1-----1--1-----------1--1-----1--------1--1-----------1--1--------------
B|--1--2--------------------------4--2-----------4-----4--2--------4--2-----------4--2--------
G|--------------------------------------3-----------------------------------------------3-----
D|--------------------------------------------------------------------------------------------
A|--------------------------------------------------------------------------------------------
E|--------------------------------------------------------------------------------------------

E|--4--2--1--2--1-----1--1--------------1--1-----1--------1--1--------------------------------
B|--------------------------4--2--------------4-----4--2--------4--2-----------2-----1--2-----
G|--------------------------------3-----------------------------------3-----------------------
D|--------------------------------------------------------------------------------------------
A|--------------------------------------------------------------------------------------------
E|--------------------------------------------------------------------------------------------

E|-----4--2--1--------------------------------------------------------------------------4--2--
B|--4-----------4--2--------2--------1--2--------4-----2--1--------------1-----2-----4--------
G|--------------------3--------------------------------------3--------------------------------
D|--------------------------------------------------------------------------------------------
A|--------------------------------------------------------------------------------------------
E|--------------------------------------------------------------------------------------------

E|--1-----------------------------------------------------------------------------------------
B|--------------4--2-----------2-----------1--2--4--2--1-----------------2--2--2--2--2-----2--
G|--------------------3-----------------------------------1--3--------------------------------
D|--------------------------------------------------------------------------------------------
A|--------------------------------------------------------------------------------------------
E|--------------------------------------------------------------------------------------------

E|--1-----------------------------------------------------1-----------------------------------
B|--------1--2-----2--4--2--------2--2--2--2--2--------2--------1--2-----2--4--2-----2--2--2--
G|--------------------------------------------------------------------------------------------
D|--------------------------------------------------------------------------------------------
A|--------------------------------------------------------------------------------------------
E|--------------------------------------------------------------------------------------------

E|-----------1-----------------1--------------------------1--1--------------------1-----------
B|--2--2--4-----4--2--2--2--4-----4--2--2--2-----2--2--2--------2--2--2--2-----2--------1--2--
G|--------------------------------------------------------------------------------------------
D|--------------------------------------------------------------------------------------------
A|--------------------------------------------------------------------------------------------
E|--------------------------------------------------------------------------------------------

E|--4--2--1--2--1-----1--1-----------1--1-----1--------1--1-----------4--2--1--2--1-----1--1--
B|--------------------------4--2-----------4-----4--2--------4--2-----------------------------
G|--------------------------------3--------------------------------3--------------------------
D|--------------------------------------------------------------------------------------------
A|--------------------------------------------------------------------------------------------
E|--------------------------------------------------------------------------------------------

E|-----------1--1-----1-----------1-----1--------------------4-----2-----1-----2-----1-----
B|--4--2-----------4-----4--2-----------------4--2-----------------------------------------
G|--------3--------------------------------------------3-----------------------------------
D|-----------------------------------------------------------------------------------------
A|-----------------------------------------------------------------------------------------
E|-----------------------------------------------------------------------------------------




Paste any tab in acousterr's tab maker and we'll play it !!!
Now supports capo and sound effects for vibrato/pull-off/hammer/bends/mutes etc !!! Checkout help section
tabs and chords, guitar tabs, music transcription, music technology, deep learning, music information retrieval, transcribe into tabs & chords, chordify, music renditions, songsterr, reverbnation, tabulature, bollywood chords, ultimate guitar, yousician, guitar lessons, acoustic guitar, electric guitar, guitar tuner, 911 tabs